Mother Is All Alone

Eagle-eye Cherry

Genero:

Tablatura

Tabbed By: Jesper (JJ)
Email: jeja02@ceus.dk

Author: Eagle-Eye Cherry

This song, will probably be Included on Eagle-Eye's 4th Album. I first Heard this
song on a program called "Living Room" 2005, where Eagle-Eye was a Guest. He played
this song with (GREAT guitarist) Mattias Thorell.

Intro: Am (hammer)
Capo: 2
[tab] Am
1. Have you seen my father[/tab]
[tab] Am
No he hasn't come back[/tab]
[tab] G
Went down to the low go[/tab]
[tab] Am
Wanting to get rare[/tab]

[tab] Am
Now he takes every dollar[/tab]
[tab] Am
And twigs it in to a shot[/tab]
[tab] G
Forgetting all about mother[/tab]
[tab] Am
And the child he's got[/tab]

[tab] Am Fmaj7/C
Ref. Let me know if you see him[/tab]
[tab] Am
He's gotta come back home[/tab]
[tab] G
And if you wanna remind him[/tab]
[tab] Am
That mother's all alone[/tab]


1. Solo

[tab] Am
2. And again his reputation[/tab]
[tab] Am
Getting paid and blows it all[/tab]
[tab] G
Coming home in our conditions[/tab]
[tab] Am
Got no cane and he Crawls[/tab]

[tab] Am
I'm the son who's gonna help him[/tab]
[tab] Am
I'm the son he never know[/tab]
[tab] G
And if you don't were losing[/tab]
[tab] Am
Mother's all alone[/tab]

[tab]Ref: --//-- --//--[/tab]

2. Solo

Don't forget the (hammer) on Am!!

1. Solo: - Remember, You're still on Capo 2, But - You're able to play it without capo also.

[tab]e|---------------------------------------------------------------------------|
H|----1--3-(s)-55----5555--3-1-----------------------------------------------|(Play Am)
G|-2----------------------------2--------------------------------------------|
D|---------------------------------------------------------------------------|
A|---------------------------------------------------------------------------|
E|---------------------------------------------------------------------------|[/tab]


2.Solo: The first part of the solo, is similar to 1.solo, I only write the
Second part of 2. solo - After you've played Am.

[tab]e|---------------------------------------------------------------------------|
H|------1--(s)-5---33--5555--3--1--------------------------------------------|(Play Am)
G|-222-----------------------------2-----------------------------------------|
D|---------------------------------------------------------------------------|
A|---------------------------------------------------------------------------|
E|---------------------------------------------------------------------------|[/tab]

(s)= Slide