Miss Fortune

Eagle-eye Cherry

Genero: Pop

Tablatura

Title: Miss Fortune
Artist: Eagle-Eye Cherry
Comments: INTRO

This is only the intro of this great song, soon I'll upload the rest. Please, e-mail me,
is my first tab and I would like to learn about this.


A G D

[tab]E +-------------------------2h3-2------------------------+
B |-------------------------------3----------------5-----|
G |----6h7p6--------------2---------2-0--------5h6-------|
D |----------7-------5--0--------------------------------|
A |--7-------------5-------------------------7-----------|
E +5-------------3-----------------------4h5-------------+[/tab]


A G B

[tab]E +--------------3---------------------------------------+
B |----------5-------------------------------------------|
G |------5h6-------4---------4---4-4---------------------|
D |------------------5-----4---4-----4-------------------|
A |----7-----------------2-------------------------------|
E +4h5-----------3---------------------------------------+[/tab]


A G D

[tab]E +------------3---3-----------2-3-2-0-------------------+
B |--------------------3---3-----------------------------|
G |------6-------4-------2---2---0-0-0-------------------|
D |--------7-----------0---------------------------------|
A |----7-------------------------------------------------|
E +4h5---------3-----------------------------------------+[/tab]


A G D

[tab]E +5-----5---3-------2-----------------------------------+
B |----5---------3---------------------------------------|
G |--6---------4-----------------------------------------|
D |------------------0-----------------------------------|
A |------------------------------------------------------|
E +5---------3-------------------------------------------+[/tab]


Twice, the second with the first part of the lyrics:
"She is my Miss Fortune
With all the troubles we've had
When ever I am around her
I do something bad"
+--------------------------------------------------------+
[tab]| Transcribed bY Dawson_mg (dawson_mg@hotmail.com) |
+--------------------------------------------------------+[/tab]