Indecision

Eagle-eye Cherry

Genero: Pop

Tablatura

Indecision by Eagle-Eye Cherry
------------------------------

Tuning : DADGBe


[tab]Intro:
D Bm A G D
e|--------------------------------------------------| |-------|
B|----------3---------------3---------------2---0---| |--3----|
G|----------2---------------4---------------2---0---| |-----2-|
D|------0-------0-------4-------4-------2-------0---| |-------|
A|------------------2---------------0---------------| |-------|only
D|--0-------------------------------------------5---|3x |-------|2nd time[/tab]

[tab] D C G D
e|--------------------------------------------------------------|
B|------------------3--------------------------3----------------|
G|---------------------2----------2--0--------------------------|
D|-----0--3--0------------------------------------4-------------|
A|--3-----------------------------------------------------------|
D|--------------------------------------------------------------|2x[/tab]


[tab]Verse 1:
D Bm A G
e|--------------------------------------------------------------|
B|----------3--------------3---------------2-----0--------------|
G|----------2--------------4---------------2-----0--------------|
D|------0-------0------4-------4-------2---------0--------------|
A|-----------------2---------------0----------------------------|
D|--0--------------------------------------------5--------------|2x
Well I found my inspiration there
In silent whispers it just came to me so clear[/tab]

[tab] A Bm G
e|--------------------------------------------------------------|
B|----------2---------------3-----------------------------------|
G|----------2---------------4-----------------0----2------------|
D|------2-------2-------4-------4--------0----------------------|
A|--0---------------2-------------------------------------------|
D|----------------------------------5---------------------------|
Simple question of what was I doing there[/tab]

[tab]Chorus:
D C G D
e|--------------------------------------------------------------|
B|------------------3----------------------------3--------------|
G|---------------------2------------2--0------------------------|
D|-----0--3--0--------------------------------------4-----------|
A|--3-----------------------------------------------------------|
D|--------------------------------------------------------------|2x
He-si-ta-tion when I'm standing with my prey
In-de-ci-sion of if I should blow him away [/tab]


D Bm A G
It's kind of strange what happened from that moment on
D Bm A G
What more can I say than reason he was gone
A Bm G
What they were asking was more than I could bear

D C G D
Execution what more can.....can I say
D C G D
The Realisation of blowing a brother away

[tab] A Bm G D
e|-------------------------------------------------------------|
B|--------2-----------3---------------0-----------------3------|
G|--------2-----------4---------------0-----------------2------|
D|-----2-----2-----4-----4-------0---------0--------0-------0--|
A|--0-----------2----------------------------------------------|
D|--------------------------5-------------------0--------------|
Mm..Mm..Mm..Mm.. Something in me was gone[/tab]

[tab] A Bm G
e|-------------------------------------------------------------|
B|--------2-----------3----------------------------------------|
G|--------2-----------4---------------0----2-------------------|
D|-----2-----2-----4-----4-------0-----------------------------|
A|--0-----------2----------------------------------------------|
D|--------------------------5----------------------------------|
Mm..Mm..Mm..Mm.. Something in me was gone[/tab]


D C G D
Hesitation when I'm standing with my prey
D C G D
Indecision of if I should blow him away


A Bm G
Simple question of what was I doing there


D C G D
Execution it was not a part of me
D C G D
The Realisation of how things are going to be


D Bm A G
In my commitment to staying away from guilt
D Bm A G
I feel no emotion for those I have gone and killed
A Bm G
Heartless devotion to saving the rest of me...


D Bm A G
I take my gun and I give it to my prey
D Bm A G
I turn my back to him and start to walk away
A Bm G
All I want is for someone to stop me there


D Bm A G
Don't want redemption
D Bm A G
Don't want salvation...


D Bm A G
In my commitment to staying away from guilt
D Bm A G
I feel no emotion for those I have gone and killed
A Bm G
Heartless devotion to saving the rest of me...





Enjoy it!

Tab by Jujububu ;)