Behind Every Breath

E For Explosion

Genero: Pop

Tablatura

Song: Behind Every Breath
Artist: E For Explosion
Album: Reinventing The Heartbeat

[tab]Riff A / Intro (0:00-0:10)
e) --------------------------------------------------------|
B) --------------------------------------------------------|
G) --------------------------------------------------------|
D) ------6-6-6---------------------------------------------| 2x
A) 9-9-9-4-4-4-7-7-7-7-7-7-7-7-7-7-------------------------|
E) 7-7-7-------5-5-5-5-5-5-5-5-5-5-------------------------|[/tab]

[tab]Riff B (0:10-0:17)
e) --------------------------------------------------------|
B) --------------------------------------------------------|
G) --------------------------------------------------------|
D) -----6-6------------------------------------------------| 1x
A) 9-9--4-4--7-7--7-7--7-7--7-7-7--7-7--7-7--7-7--7-7--7---|
E) 7-7-------5-5--5-5--5-5--5-5-5--5-5--5-5--5-5--5-5--5---|[/tab]

[tab]Riff C / Verse (0:17-0:24)
e) --------------------------------------------------------|
B) --------------------------------------------------------|
G) --------------------------------------------------------|
D) -----6-6------------------------6-6---------------------| 1x
A) 9-9--4-4--7-7--7-7--7-7--7-9-9--4-4--7-7--7-7--7-7--7---|
E) 7-7-------5-5--5-5--5-5--5-7-7-------5-5--5-5--5-5--5---|[/tab]

Riff B (0:24-(0:32)
Repeat 1x

[tab]Riff C / Pre-Chorus (0:32-0:46)
e) --------------------------------------------------------|
B) --------------------------------------------------------|
G) --------------------------------------------------------|
D) -----6-6------------------------6-6---------------------| 2x
A) 9-9--4-4--7-7--9-9--9-9--9-9-9--4-4--9-9--9-9--9-9--9---|
E) 7-7-------5-5--7-7--7-7--7-7-7-------7-7--7-7--7-7--7---|[/tab]

[tab]Riff D / Rhythm Guitar Chorus (0:46-0:57)
e) --------------------------------------------------------|
B) --------------------------------------------------------|
G) --------------------------------------------------------|
D) ----------------------6-6-6-6-6-------------------------| 3x
A) 7-7-7-7-7-7-7-7-9-9-9-4-4-4-4-4-------------------------|
E) 5-5-5-5-5-5-5-5-7-7-7-----------------------------------|[/tab]

[tab]Riff D Continued (0:57-1:01)
e) --------------------------------------------------------|
B) --------------------------------------------------------|
G) --------------------------------------------------------|
D) --------------------------------------------------------| 1x
A) 7-7-7-7-7-7-7-7-7-7-7-7-7-7-7-7-------------------------|
E) 5-5-5-5-5-5-5-5-5-5-5-5-5-5-5-5-------------------------|[/tab]

[tab]Riff E / Lead Guitar Chorus (0:45-1:01)
e) ------7-------------------------------------------------|
B) ---5----------------------------------------------------|
G) 4-------------------------------------------------------|
D) --------------------------------------------------------| 5x
A) --------------------------------------------------------|
E) --------------------------------------------------------|[/tab]

Riff C (1:01-1:16)
Repeat 2x

Riff B (1:16-1:23)
Repeat 1x

Riff C (1:23-1:30)
Repeat 1x

Riff B (1:30-1:37)
Repeat 1x

[tab]Riff F / Pre-Chorus (1:38-1:52)
e) --------------------------------------------------------|
B) --------------------------------------------------------|
G) --------------------------------------------------------|
D) --------------------------------------------------------| 2x
A) 7-----9-9-9-7-----9-9-9---------------------------------|
E) 5-----7-7-7-5-----7-7-7---------------------------------|[/tab]

Riff D (1:52-2:22)
Repeat Whole Riff 2x

Riff E (1:51-2:22)
Repeat 9x

[tab]Riff G / Bridge (2:22-2:29) -- HOLD CHORD FOR 4 BARS
e) --------------------------------------------------------|
B) --------------------------------------------------------|
G) --------------------------------------------------------|
D) --------------------------------------------------------| 1x
A) 7-------------------------------------------------------|
E) 5-------------------------------------------------------|[/tab]

[tab]Riff G Continued (2:29-2:51)
e) --------------------------------------------------------|
B) --------------------------------------------------------|
G) --------------------------------------------------------|
D) --------------------------------------------------------| 3x
A) 7-7-7-------9-9-9-7-7-7---------------------------------|
E) 5-5-5-------7-7-7-5-5-5---------------------------------|[/tab]

Riff D (2:51-3:35)
Repeat Whole Riff 3x

Riff E (3:05-3:46)
Repeat 11x

Riff G (3:35-FADE OUT)
Repeat First Part Only 1x -- HOLD UNTIL FADE OUT