Taking My Time

E-dubble

Album: Freestyle Friday
Genero: Rap

Tablatura (Ver letra)

-------------------------------------------------------------------------------
Taking My Time - E-dubble
-------------------------------------------------------------------------------
Tabbed by: RockerJohnny
E-mail: johannes.ellmaier@gmail.com

Tuning: Standard



Intro:
D F D F D

[tab]e|----2---2-----1-----2---2-----1-----2--2---2--2---2--2-----------------------|
B|----3---3-----1-----3---3-----1-----3--3---3--3---3--3-----------------------|
G|----2---2-----2-----2---2-----2-----2--2---2--2---2--2-----------------------|
D|----0---0-----3-----0---0-----3-----0--0---0--0---0--0-----------------------|
A|-----------------------------------------------------------------------------|
E|-----------------------------------------------------------------------------|[/tab]






Verse:
D C G

[tab]e|-----2--2------0--0------3--3--x--3----------------------------------------|
B|-----3--3------1--1------0--0--x--0----------------------------------------|
G|-----2--2------0--0------0--0--x--0----------------------------------------|
D|-----0--0------2--2------0--0--x--0----------------------------------------|
A|---------------3--3------2--2--x--2----------------------------------------|
E|-------------------------3--3--x--3----------------------------------------|[/tab]




Between the verses:


[tab] B5 C5 B5 C5
e|-----------------------------------------------------------------------------|
B|-----------------------------------------------------------------------------|
G|-----4--4-----5--5-----4--4-----5--5-----------------------------------------|
D|-----4--4-----5--5-----4--4-----5--5-----------------------------------------|
A|-----2--2-----3--3-----2--2-----3--3-----------------------------------------|
E|-----------------------------------------------------------------------------|[/tab]


I hope you'll like it :D If you find any mistakes: johannes.ellmaier@gmail.com