Sabemos Lo Real

Dread Mar I

Genero: Pop

Tablatura

Intro: G#m - D#m X4

E:---------------------------------------------------|
B:---------------------------------------------------|
G:---4-6^8-8^---8-9-8^6-6-4-6-4--4-6-4---------------|
D:-6-----------------------------------6-------------|
A:---------------------------------------------------|
E:---------------------------------------------------| X2

G#m D#m G#m D#m
Ustedes están con la mentira hasta el cuello
Hablan y nos maltratan todo el tiempo
G#m D#m G#m D#m
No saben lo que es necesitar para vivir
No saben lo que es tener que trabajar y sin dormir

Gastan, ese dinero que es nuestro
Viven, de la gran vida con despecho
Son especialista en no ver el problema
Nunca se harán cargo de la miseria ajena

Y pretenden que creamos en un cambio
Y ya esperamos, como 200 años

G#m D#m G#m D#m
No nos subestimen que sabemos lo real
G#m D#m G#m D#m
Son unos ladrones y lo serán hasta el final X2

G#m D#m B F#
Hasta el final
G#m D#m B F#
Hasta el final
Hasta el final
Hasta el final


G#m - D#m - B - F# X6
E:---------------------------------------------------|
B:---------------------------------------------------|
G:---4-6^8-8^---8-9-8^6-6-4-6-4--4-6-4---------------|
D:-6-----------------------------------6-------------|
A:---------------------------------------------------|
E:---------------------------------------------------| X3

Termina en G#m