Más Allá De Tus Ojos

Dread Mar I

Album: Vivi En Do
Genero: Pop

Tablatura (Ver letra)

Intro: Em  C  D

Em C D
e|-------3--|-------0--|-------2--|
|-----0----|-----1----|-----3----|
|---0------|---0------|---2------| X2
|-2--------|-2--------|-0--------|
|----------|----------|----------|
E|----------|----------|----------|


Saxo
e |------------------------------------------------------5-8d(10)--
|------5-8-----------------------------------------5-8-----------
|-4-7------7------4--------------------------4-7-7---------------
|-------------7-5---7-5---5-7-5d(0)----5-7-7---------------------
|-----------------------7------------7---------------------------
E |----------------------------------------------------------------

e |-12-10-------------------------5-7-10-3-2p(0)-------------------
|-------12-10----12-10------5-8----------------3-----------------
|-------------12--------4-7--------------------------------------
|----------------------------------------------------------------
|----------------------------------------------------------------
E |----------------------------------------------------------------

d: desliza.
p: Pellizca.
(): nota que deberá sonar luego del arreglo indicado.


Em x2 C x2 D x4
ya no ves mas alla de tus ojos,
Em C D
y el amor escaso en tu corazon,
Em C D
tu sentir de a gotas en tu alma,
Em C D
te estan nublando la razon... x2

Em C
pues no debes comprar todo lo que te vendan
D
eso no es la verdad eso es una miseria
Em C
ellos estan aqui solo para mentirnos
D
hacernos infeliz ese es su objetivo..

repite coro...
Em C
ya no uses mas palabras de esas sin contenido
D
destruyen hoy tu vida destruyen tu destino
Em C
ya no sirve de nada tener la mente hueca
D
nutrila con amor veras la recompensa

repite coro..


te estan nublando la razon... te estan nublando la razoon...

e |------------------------------------------------------------------
|------------------------------------------------------------------
|-----------------------12-11-11-9---------------------------------
|-5-7-9-5---9d(10)-9-7-------------9-12-10-9-9---------------------
|---------7------------------------------------10-12---------------
E |------------------------------------------------------------------
y ya no vesss... mas alla de tus

e |---------------------------------------------------------------
|---------------------------------------------------------------
|-12-11-11-9---------------------------------------------------- x2
|------------9-12-10-9-9---------------12-----------------------
|------------------------10-12-12d(14)----14-12-----------------
E |---------------------------------------------------------------
ojos...

e |------------------------------------------------------------------
|------------------------------------------------------------------
|----------------------------------------------------------2d(4)-2-
|-5-7-9-5---9d(10)-9-7---5-7-9-5---9d(10)-9-7--------5-------------
|---------7----------------------7-------------5-3-2---2-3---------
E |------------------------------------------------------------------