Senderos

Divididos

Genero: Pop
NOTA: El tema es complicado tocarlo al principio por
que esta en 6 x 4 - muy copado!

Am Em Am Em
Senderos en el chañar,
Am Em Am Em
tu huella se ha de borrar,
Am Em Am Em Am Em Am Em
perdiéndose la de volver.

El monte da sin pedir,
el monstruo pide sin dar,
con el cañón, con el fiscal.

C G (G-F#) F C G
Pero allá, donde duerme el sol,
F G F Am G
soñarás la huella que se fue.


Vivir, camino a seguir,
es como el río que va.
Tu sueño está
y vos también.

Pero allá, donde duerme el sol,
soñarás la huella que se fue.

(ya voy a subir el solo, estoy ene l tarbajo ahora y no tengo
la viola a mano, pero empieza de esta manera)

E:|----------------------------------------------------------------|
B:|----------------------------------------------------------------|
G:|----------------------------------------------------------------|
D:|-------------------7-7------------------------------------------|
A:|---------------7---------7---------------7----------------------|
e:|----5-5---10-----------------10---5-5--------10---5-5-----------|

E:|----------------------------------------------------------------|
B:|----------------------------------------------------------------|
G:|----------------------------------------------------------------|
D:|-------------------7-7------------------------------------------|
A:|---------------7---------7--------------------------------------|
e:|----5-5---10-----------------10~~-------------------------------|

(despues sigue con una subida en la pentatonica... despues lo subo)

Silbando el viento borró,
sombra de aquel haz de luz.
Vengo de ayer, no soy ayer.

Pero allá, donde duerme el sol,
soñarás la huella que se fue.



EL MEJOR TEMA DEL DISCO... LEJOS!!!