Crippidiscopunk

Cadaver Exquisito

Genero:

Tablatura

Hola a todos!
Aquí la transcripción de esta excelente canción!

Esta es la versión que tocaban en vivo!
Por eso el segundo coro y la parte posterior al puente
es algo diferente a la versión estudio.

Video de referencia:
https://www.youtube.com/watch?v=3BcHIOGh4vo

---------------------------
INTRO (RIFF)
---------------------------

e|------------------------------------------|
b|------------------------------------------|
G|--------------9------------------9--------|
D|---------9-11---9-11--------9-11---9-11---|
A|---9~~~ -------------9~~~ ----------------|
E|------------------------------------------|

e|-------------------------------------------------------------|
b|-------------------------------------------------------------|
G|---------------------------------------11-9-11-9-------------|
D|----7-9~--9-7---7-9~--9-7---7-9~--9-7------------11-9-11-9---|
A|--9-----------9-----------9----------------------------------|
E|-------------------------------------------------------------|

e|----------------------------------------------------|
b|----------------------------------------------------|
G|-----------9-9-9-9-9-9/11-----------9-9-9-9-9-9/11--|
D|--------11---9-9-9-9-9/11--------11---9-9-9-9-9/11--|
A|--9~--9--------------------9~--9--------------------|
E|----------------------------------------------------|

e|--------------------------------------------------------|
b|--------------------------------------------------------|
G|---------------------------------------11-11-9----------|
D|----7-9~--9-7---7-9~--9-7---7-9~--9-7-----------9-11----|
A|--9-----------9-----------9-----------------------------|
E|--------------------------------------------------------|

e|----------------------------------------------------|
b|----------------------------------------------------|
G|-----------9-9-9-9-9-9/11-----------9-9-9-9-9-9/11--|
D|--------11---9-9-9---------------11---9-9-9---------|
A|--9~--9--------------------9~--9--------------------|
E|----------------------------------------------------|

e|----------------------------------------------------------------|
b|----------------------------------------------------------------|
G|---------------------------------------11-9----9---------9-11~--|
D|----7-9~--9-7---7-9~--9-7---7-9~--9-7-------11---11-9-11--------|
A|--9-----------9-----------9-------------------------------------|
E|----------------------------------------------------------------|

CrippiDiscoPunk!

F#5
e|---------------------------------------------------------------|
b|---------------------------------------------------------------|
G|---------------------------------------------------------------|
D|--------11---11---------11---11---------11---11----------------|
A|---9~-9----9----9--9--9----9----9--9--9----9----9--9--9--9-----|
E|---------------------------------------------------------------|

------------------------------
ESTROFA 1 (RIFF)
------------------------------
F#5 E5 D5
e|----------------------------------------------------------------|
b|----------------------------------------------------------------|
G|--------------------------------------------------7---7---------|
D|--------11---9-7--------9---7-6-------7---7---------------------|
A|---9~-9----9-------7--7---7-------5-5---5-----5-5---5---5-------|
E|----------------------------------------------------------------|

A5 E5 F#5
e|----------------------------------------------------------------|
b|----------------------------------------------------------------|
G|---------------------------------------------------11--11-------|
D|----------------------6---7-6--------11---11--------------------|
A|--------4-5-4---7-7-7---7-------9--9----9------9-9---9----9-----|
E|---5--5---------------------------------------------------------|

F#5 E5 D5
e|----------------------------------------------------------------|
b|----------------------------------------------------------------|
G|--------------------------------------------------7---7---------|
D|--------11---9-7--------9---7-6-------7---7---------------------|
A|---9--9----9-------7--7---7-------5-5---5-----5-5---5---5-------|
E|----------------------------------------------------------------|

A5 E5 F#5
e|----------------------------------------------------------------|
b|----------------------------------------------------------------|
G|-----------------------------------------------11-11-11-11-11---|
D|----------------------6---7-6--------11---11---11-11-11-11-11---|
A|--------4-5-4---7-7-7---7-------9--9----9------9--9--9--9--9----|
E|---5--5---------------------------------------------------------|

F#5 E5
Un flashazo de esa luz, me dice que en tus pupilas
D5 A5
Ya no existes solo tú, un parasito
E5 F#5
Te invade los sesos, vive en tu cráneo

A donde vas tú y yo que sé, parece seguimos vivos
El gusano de neón, borró esa lapida
De tu corazón, de tu corazón

--------------------
CORO 1
--------------------

B5 D5 F#5 A5
Quieres bailar cripidiscopunk, CripidisCopunk o o o o o o
e|----------------------------------------------------------------|
b|----------------------------------------------------------------|
G|--4-------------------7-----------------------------------------|
D|--4-------------------7------4--------------------7-------------|
A|--2-------------------5------4--------------------7-------------|
E|-----------------------------2--------------------5-------------|

B5 D5 F#5 A5
Quieres bailar cripidiscopunk, Cripidiscopunk o o o
e|----------------------------------------------------------------|
b|----------------------------------------------------------------|
G|--4-------------------7------11-------------------14------------|
D|--4-------------------7------11-------------------14------------|
A|--2-------------------5------9--------------------12------------|
E|----------------------------------------------------------------|

B5 D5 F#5 A5
Y que no se que no se que no se que no
apiade de ti apiade de ti apiade de ti se apodere
e|----------------------------------------------------------------|
b|----------------------------------------------------------------|
G|--4-------------------7------11---------------------------------|
D|--4-------------------7------11-------------------7-------------|
A|--2-------------------5------9--------------------7-------------|
E|--------------------------------------------------5-------------|

B5 D5 F#5
Quieres bailar cripidiscopunk
e|----------------------------------------------------------------|
b|----------------------------------------------------------------|
G|--4-------------------7------11--------11~ ---------------------|
D|--4-------------------7------11--------11~ ---------------------|
A|--2-------------------5------9---------9-~ ---------------------|
E|----------------------------------------------------------------|

-----------------------------------------
ESTROFA 2 (RIFF IGUAL A LA ESTROFA 1)
-----------------------------------------

Corriendo en la oscuridad, veo que acumulaste todo
Un gran acaro mental, te succionará
Si no apagas las luces, pides cambio

Va empezando a amanecer, el sol prepara su arribo,
Vas perdiendo la razón y tus párpados
Ya no habitan en el mismo barrio


-----------------------------------------
CORO 2 (Igual a Coro 1 con una variación)
-----------------------------------------

B5 D5 F#5 A5
Quieres bailar cripidiscopunk, Cripidiscopunk o o o o o o
B5 D5 F#5 A5
Quieres bailar cripidiscopunk, Cripidiscopunk o o o

Y que no se que no se que no se que no
apiade de ti apiade de ti apiade de ti se apodere
e|----------------------------------------------------------------|
b|----------------------------------------------------------------|
G|--4-4-4-4-4------7-7--9-9------------------------4-4--6-6-------|
D|---------------------------------7-7-7-7-7----------------------|
A|--2-2-2-2-2------5-5--7-7------------------------2-2--4-4-------|
E|---------------------------------5-5-5-5-5----------------------|

B5 D5 F#5
Quieres bailar cripidiscopunk
e|-----------------------------------------------------------------|
b|-----------------------------------------------------------------|
G|--4-------------------7-------11--------11~ ---------------------|
D|--4-------------------7-------11--------11~ ---------------------|
A|--2-------------------5-------9---------9-~ ---------------------|
E|-----------------------------------------------------------------|

------------------------
BRIDGE
------------------------

F#5 D5 C#5 G#5 A5 G#5
e|----------------------------------|
b|----------------------------------|
G|----------7-6---x-x-x-------------|
D|-----4----7-6---x-x-x--6/7/6------|3x
A|-----4----5-4---x-x-x--6/7/6------|
E|---0H2-----------------4/5/4------|

F#5 D5 C#5
e|----------------------------|
b|------------------7---------|
G|----------7-6-----10b12~ ---|
D|-----4----7-6---------------|
A|-----4----5-4---------------|
E|---0H2----------------------|


F#5 A5 D5 F#5
Y que no se apiade de ti, Y que no se apiade de ti,
que no se apodere que no se apodere
e|-----------------------------------------------------|
b|-----------------------------------------------------|
G|---------------------------7-------------------------|
D|-----4---------------7-----7------------------4------|2x
A|-----4---------------7-----5------------------4------|
E|-----2---------------5------------------------2------|

F#5 A5 D5 F#5
Y que no se apiade de ti, y que no se apiade de ti, que no se apodere
e|----------------------------------------------------|
b|----------------------------------------------------|
G|-------9~------------------------9~-----------------|
D|----11----9-11----7-9~-9-7----11----9-11---7-9~-9-7-|
A|--9-------------9-----------9------------9----------|
E|----------------------------------------------------|

F#5 A5 D5 F#5
Quieres bailar cripidiscopunk o o o o o o
e|-----------------------------------------------|
b|-----------------------------------------------|
G|------------------------------------11-11-9----|
D|---7-9~-9-7----7-9~-9-7----7-9~-9-7---------11-|
A|-9-----------9-----------9---------------------|
E|-----------------------------------------------|

------------------------
CORO 3 (IGUAL AL CORO 1)
------------------------

Quieres bailar cripidiscopunk, Cripidiscopunk o o o o o o
Quieres bailar cripidiscopunk, Cripidiscopunk disco o o o o o o

Y que no se apiade de ti, y que no se apiade de ti,
que no se apiade de ti, que no se apodere

Quieres bailar Cripidiscopunk o o o o o o

------------------------
SALIDA
------------------------

F#5 D5 C#5 G#5 A5 G#5 F#5 D5 C#5 F#5
e|-----------------------------------------------------|
b|-----------------------------------------------------|
G|----------7-6---x-x-x-------------------7-6----------|
D|-----4----7-6---x-x-x--6/7/6-------4----7-6----4.----|
A|-----4----5-4---x-x-x--6/7/6-------4----5-4----4.----|
E|---0H2-----------------4/5/4-----0H2-----------2.----|