Brotherhood

B'z

Genero: Pop

Tablatura

B'z-Brotherhood Intro (1999) Brotherhood Album

Tuning Standard

Key:
b = bend
v = Vibrato

[tab]Intro:
E---5-4---------5-4----------5-4---4------5-4---4-5--|
B---5-5-5---5---5-5-5---5----5-5-5---5----5-5-5------|
G---------6-----------6------------------------------| Play This Twice Before
D-4------------4-----------0------------0------------| The Intro Solo..
A----------------------------------------------------|
e----------------------------------------------------| X2[/tab]


[tab]Intro Solo:
E-----------------------------14-16b-16-14-----------19b-17-19----|
B-14b-10---10---10/12-------17-------------17-14-17b-----------17-|
G--------9----9-------9--16b--------------------------------------|
D-----------------------------------------------------------------|
A-----------------------------------------------------------------|
e-----------------------------------------------------------------|[/tab]

[tab]E------------------------------------16b----------------|
B----------------------------------------17----10-9b----|
G-7-7-7-7/9-9-9-9/11-11-11-11/14-14---------16-------9--|v
D-------------------------------------------------------|
A-5-5-5-5/7-7-7-7/9--9--9---9/12-12---------------------|
e-------------------------------------------------------|[/tab]

This was a request tab i also requested it but decided to have a go at it myself..

Enjoy!