Southern Nights

B.w. Stevenson

Genero:

Tablatura

Southern Nights 
BW Stevenson


Intro


[tab] Riff
Part 1 Part 2 Part 3
E-------------------|-------------------|------------------
G----------1--------|----------1--------|---------1--------
D------2-3---4-2----|------2-3---4-2----|-----2-3---4-2----
A--2-3-----------4--|--2-3-----------4--|-2-3-----------4--
E-------------------|-------------------|------------------[/tab]

[tab] Part 4
E----------------------
B----------------------
G----------------------
D--5-4-2---------------
A--------5-4-2---------
E--------------5-3-2-0- E chord[/tab]

Verse 1


[tab]E C# F#7
Southern Nights, have you ever felt the southern night?[/tab]
[tab]A
Free as a breeze, not to mention the trees, whistling[/tab]
[tab]G#m B7
tunes that you know and love so.[/tab]
[tab]E C# F#7
Southern Nights, just as good even when closed your eyes.[/tab]
[tab] A G#m
I apologize, to any one who can truly say[/tab]
[tab] B7
that he has found a better way.[/tab]

[tab]Riff
Part 1 Part 2 Part 3
E-------------------|-------------------|------------------
G----------1--------|----------1--------|---------1--------
D------2-3---4-2----|------2-3---4-2----|-----2-3---4-2----
A--2-3-----------4--|--2-3-----------4--|-2-3-----------4--
E-------------------|-------------------|------------------[/tab]

[tab] Part 4
E----------------------
B----------------------
G----------------------
D--5-4-2---------------
A--------5-4-2---------
E--------------5-3-2-0- E chord[/tab]

Verse 2

[tab]E C# F#7
Southern Skies, have you ever noticed southern skies?[/tab]
[tab]A
It's precious beauty lies just beyond the eye.[/tab]
[tab] G#m B7
It goes running through your soul like the stories told of old.[/tab]
[tab]E C# F#7
Old man, he and his dog that walked the old land.[/tab]
[tab] A
Every flower touched his cold hand.[/tab]
[tab] G#m B7 E
As he slowly walked by, weeping willows would cry for joy. [/tab]




[tab]Riff
Part 1 Part 2 Part 3
E-------------------|-------------------|------------------
G----------1--------|----------1--------|---------1--------
D------2-3---4-2----|------2-3---4-2----|-----2-3---4-2----
A--2-3-----------4--|--2-3-----------4--|-2-3-----------4--
E-------------------|-------------------|------------------[/tab]

(sing Joy )

[tab] Part 4
E----------------------
B----------------------
G----------------------
D--5-4-2---------------
A--------5-4-2---------
E--------------5-3-2-0- E chord[/tab]

Verse 3

[tab]E C#
Feels so good, feels so good it's frightening.[/tab]
[tab]F#7
Wish I could, stop this world from fighting.[/tab]
[tab]A
La da da da da da la da da da da da [/tab]
[tab]G#m B7
da da da da da da da da da da [/tab]
[tab]E C# F#7
Mysteries, like this and many others in the trees.[/tab]
[tab]A B7 E
Blow in the night, in the southern skies.[/tab]

[tab]Riff
Part 1 Part 2
E-------------------|-------------------|
G----------1--------|----------1--------|
D------2-3---4-2----|------2-3---4-2----|
A--2-3-----------4--|--2-3-----------4--|
E-------------------|-------------------|[/tab]


Outro


[tab]E C#
Southern nights, they feel so good it's frightening [/tab]
[tab]F#7
wish I could stop this world from fighting.[/tab]
[tab]A
la da da da da da la da da da da da [/tab]
[tab]G#m B7
da da da da da la da da da da da da da da fade[/tab]


flyinglibra51
God Bless Glen Travis Campbell