Someday

B.s.e.

Genero: Rap

Tablatura

Song: Someday
Artist:B.S.E
Album:N/A
Tabbed by: howie55

i first heard this song on tv with the video and it was hard to
heaR he chords but i think listening to this song on there album
is easier to figure out. After all,this is the best song on the album.

INTRO/VERSES:
THE CHORDS ARE JUST C,AM,D,EM7

THE OTHER GUITAR FOR THE FIRST PART OF THE VERSE PLAYS A BIT OF A
LEAD AND IT GOES LIKE THIS.

[tab]e|--------------12------------------------------------|
b|-----------------12-13-15-16-17-15-11-13------------|
g|-15/12-----13---------------------------------------|
d|-------12-------------------------------------------|
a|----------------------------------------------------|
E|----------------------------------------------------|[/tab]

PRE-CHORUS: play 2x without vocals then continue with vocals.


[tab]e|------------------------------------------------------------------|
b|------------------------------------------------------------------|
g|-------------------5-5-5-5---9--7---------------------------------|
d|-7-7-7-7--5-5-5-5--5-5-5-5---9--7--7-7-7-x-5-5-x-3-3-3-3-2--5-----|
a|-7-7-7-7--5-5-5-5--3-3-3-3---7--5--7-7-7-x-5-5-x-3-3-3-3-2--5-----|
E|-5-5-5-5--3-3-3-3------------------5-5-5-x-3-3-x-1-1-1-1-0--3-----|[/tab]

CHORUS: MODULE 1


[tab]e|----------------------------------------------------|
b|----------------------------------------------------|
g|---------------7-7-3-3------------------------------| 2X
d|--7-7-X-X-X-X--7-7-3-3---3-3-X-X-X-X--4--5----------|
a|--7-7-X-X-X-X--5-5-1-1---3-3-X-X-X-X--4--5----------|
E|--5-5-X-X-X-X------------1-1-X-X-X-X--2--3----------|[/tab]

CHORUS: MODULE 2


[tab]e|--------------------------------------|
b|--------------------------------------|
g|--------------------3-3-3-3-5-5-5-5---| 2X
d|--7-7-7-7--3-3-3-3--3-3-3-3-5-5-5-5---|
a|--7-7-7-7--3-3-3-3--1-1-1-1-3-3-3-3---|
E|--5-5-5-5--1-1-1-1--------------------|[/tab]


NOTE: AFTER PLAYING MODULE 2 GO BACK TWO MODULE 1 AND REPEAT.


SOLO: PLAY OVER SECOND GUITAR THAT PLAYS CHORUS.


[tab]e|--------5-4-----------------------5/12-----------------------|
b|-55555-------444-5-6----77777--5--------777777--99999--------|
g|-------------------------------------------------------------|
d|-------------------------------------------------------------|
a|-------------------------------------------------------------|
E|-------------------------------------------------------------|[/tab]


[tab]e|-12-12-12----------------------13^^^------------5/12---------------|
b|----------15^^^---12-12-12-12----------77777--5-------77777--99999-|
g|-------------------------------------------------------------------|
d|-------------------------------------------------------------------|
a|-------------------------------------------------------------------|
E|-------------------------------------------------------------------|[/tab]

Well that's almost all of it. The strumming might be a little off but
if have any questions or comments send it to this address.
HOWIESOLMAN@HOTMAIL.COM