Dont Care About Me Only What I Have

B.s.e.

Genero:

Tablatura

Artist:B.S.E
song title:dont care about me (only what i have)
Album:N/A
submitted by:ken press?

[tab]Intro/riff 1
e----------------------------------------------------|
-----------------------------------------------------|
--7-6-7-6-5------------------------------------------|
--7-6-7-6-5--7-6-7-6-5--9-8-9-8-9--5xxxxx------------|X4
--5-4-5-4-7--7-6-7-6-5--9-8-9-8-9--5xxxxx------------|
e------------5-4-5-4-7--7-6-7-6-7--3xxxxx------------|[/tab]

Verse
guitar 2
riff 1

[tab]guitar 2/verse
e-----------------------------------------------------|
------------------------------------------------------|
--7xxxxx----------------------------------------------|
--7xxxxx--7xxxxx--9xxxxx--5xxxxx----------------------|
--5xxxxx--7xxxxx--9xxxxx--5xxxxx----------------------|
e---------5xxxxx--7xxxxx--3xxxxx----------------------|[/tab]

Chorus

[tab]e------------------------------------------------------|
-------------------------------------------------------|
-------------------------------------------------------|
-9..999-10-9-5-7--999-7777-10-9-5-5--------------------|
-9..999-10-9-5-7--999-7777-10-9-5-5--------------------|
e7..777-8--7-3-5--777 5555-8--7-7-3--------------------|[/tab]

after each chorus
riff 1

[tab]verse 2
e--------------------|
---------------------|
--7-------7----------|
--77--95--77--93-----|
--57--95--57--93-----|
e--5--73---5--75-----|[/tab]