Just For You

B.reith

Genero: Rock

Tablatura

This song has two basic picking patterns that you can mess around with while using the 
chord progression.

1st pattern:

[tab]Ring -0------------0----|
Middle-----0-------------|
Index --------0--------0-|
-------------------|
-------------------|
Thumb -0---------0-------|[/tab]

2nd pattern:

[tab]Ring ---------------------0-----------------|
Ring -------------0--------------------0----|
Middle----0--------------------0-------------|
Index -------0--------0-----------0--------0-|
---------------------------------------|
Thumb -0--------0----------0---------0-------|[/tab]

So this is what it looks like throughout the song. Try not to get overwhelmed by the
picking pattern. Practice it while listening to the song, and in no time, you'll get the
pattern down. Now here's the actual tab.

Intro:

[tab]-0------------0-------2------------2-------|
-----0--------------------0----------------|
--------1--------1h2---------2--------2p1--|
-------------------------------------------|
-------------------------------------------|
-0---------0----------0---------0----------| x4[/tab]


Verse:

[tab]E
-0------------0-------2------------2-------|
-----0--------------------0----------------|
--------1--------1h2---------2--------2p1--|
-------------------------------------------|
-------------------------------------------|
-0---------0----------0---------0----------| x4[/tab]

[tab]A
-0------------0-------2------------2------4------------4-------0-----------|
-----0--------------------0-------------------0--------------------0-------|
--------1--------1h2---------2--------2----------2--------2-----------2----|
---------------------------------------------------------------------------|
-0---------0----------0---------0---------0---------0----------0---------0-|
---------------------------------------------------------------------------|[/tab]

[tab]--0-----|
--------|
-----2--|
--------|
--------|
--------|[/tab]

[tab]E
-0------------0-------2------------2-------|
-----0--------------------0----------------|
--------1--------1h2---------2--------2p1--|
-------------------------------------------|
-------------------------------------------|
-0---------0----------0---------0----------| x4[/tab]


Bridge:

[tab]C#m A
---------------------0-----------------------------------------0-----------|
-------------5--------------------5--------------------3-------------------|
----6--------------------6-------------------3---------------------3-------|
-------6--------6-----------6--------6----------3---------3-----------3----|
-4--------4----------4---------4----------0---------0----------0---------0-|
---------------------------------------------------------------------------|[/tab]

-----
-3---
[tab]-----
----3
-----
-----[/tab]

[tab]E
-0------------0-------2------------2-------|
-----0--------------------0----------------|
--------1--------1h2---------2--------2p1--|
-------------------------------------------|
-------------------------------------------|
-0---------0----------0---------0----------| x4[/tab]

[tab]C#m F#
---------------------0-----------------------------------------2-----------|
-------------5--------------------5--------------------2-------------------|
----6--------------------6-------------------3---------------------3-------|
-------6--------6-----------6--------6----------4---------4-----------4----|
-4--------4----------4---------4-------------------------------------------|
------------------------------------------2---------2----------2---------2-|[/tab]

[tab] A
-----------------------------0-------------------2-----|
-2-------------------3--------------------3------------|
-----------3---------------------3---------------------|
----4---------3---------3-----------3--------3---------|
--------0---------0----------0---------0---------0-----|
-------------------------------------------------------|[/tab]


Chorus:

[tab]E F#m
---------------------0-----------------------------------------2-----------|
-------------0--------------------0--------------------2-------------------|
----1--------------------1-------------------2---------------------2-------|
-------2--------2-----------2--------2----------4---------4-----------4----|
---------------------------------------------------------------------------|
-0--------0----------0---------0----------2---------2----------2---------2-|[/tab]

[tab] C#m A
-----------------------------0-----------------------------------------0-----|
-2-------------------5--------------------5--------------------3-------------|
-----------6---------------------6-------------------3---------------------3-|
----4---------6---------6-----------6--------6----------3---------3----------|
--------4---------4----------4---------4----------0---------0----------0-----|
-----------------------------------------------------------------------------|[/tab]

[tab]-------------|
--------3----|
-------------|
-3---------3-|
-----0-------|
-------------|[/tab]

[tab]E F#m
---------------------0-----------------------------------------2-----------|
-------------0--------------------0--------------------2-------------------|
----1--------------------1-------------------2---------------------2-------|
-------2--------2-----------2--------2----------4---------4-----------4----|
---------------------------------------------------------------------------|
-0--------0----------0---------0----------2---------2----------2---------2-|[/tab]

[tab] C#m F#
-----------------------------0-----------------------------------------2----|
-2-------------------5--------------------5--------------------2------------|
-----------6---------------------6-------------------3----------------------|
----4---------6---------6-----------6--------6----------4---------4---------|
--------4---------4----------4---------4------------------------------------|
--------------------------------------------------2---------2----------2----|[/tab]

[tab]C#m Am
---------------------0-----------------------------------------0-----------|
-------------5--------------------5--------------------2-------------------|
----6--------------------6-------------------3---------------------3-------|
-------6--------6-----------6--------6----------3---------3-----------3----|
-4--------4----------4---------4----------0---------0----------0---------0-|
---------------------------------------------------------------------------|[/tab]

[tab] E F#
--------------------------0-----------------------------------------2------|
-2----------------0--------------------0--------------------2--------------|
---------1--------------------1-------------------3------------------------|
----3-------2--------2-----------2--------2----------4---------4-----------|
---------------------------------------------------------------------------|
------0--------0----------0---------0----------2---------2----------2------|[/tab]

[tab]A
----------------------0-------------------2-----|
--------------3--------------------3------------|
----3---------------------3---------------------|
-------3---------3-----------3--------3---------|
-0---------0----------0---------0---------0-----|
------------------------------------------------|[/tab]

Repeat Intro

Repeat Verse

Repeat Bridge

Repeat Chorus

Instrumental: Go through the verse and use the 2nd pattern in this sequence-
C#m, A, C#m, F#, A

Repeat Chorus

Outro:

[tab]E
-0------------0-------2------------2-------|
-----0--------------------0----------------|
--------1--------1h2---------2--------2p1--|
-------------------------------------------|
-------------------------------------------|
-0---------0----------0---------0----------| x3[/tab]

[tab]E
--0--
--0--
--1--
--2--
--2--
--0--[/tab]