Violet Vibrato

B.o.b

Album: Psycadelik Thoughtz
Genero: Rap

Tablatura (Ver letra)

[tab][Intro] 
(based on F (where high e is left open) and C chords)
e|--------------------0-------------0---------------------|
B|----1-1h3p1-------1--1h3--3p1------1h3--3p1-----1h3p1---|
G|--2---------2---2---------------0-------------0---------|
D|3-------------3---------------2-------------2-----------|
A|---------------------------3-------------3--------------|
E|--------------------------------------------------------|[/tab]

[tab][Verses]
e|----------------------------0---------0-----------------|
B|----1-1p3h1-------1-1p3--3h1------1h3--3p1------1h3p1---|
G|--2---------2---2----------------0------------0---------|
D|3-------------3-----------------2-----------2-----------|
A|------------------------------3-----------3-------------|
E|--------------------------------------------------------|[/tab]

[Chorus](x5)
Dm Am C G
I wonder if we, are living a show, so tell me, I gotta know
Dm Am C G
If I were to be, honest and bold, would I be, a hero
Dm Am C G
Cause if you could see, the colors that glow, inside my soul
Dm Am C G
If I were to bleed, my blood would flow, a violet vibrato

Am Em Am Em
la la la la, la, la, la la la la, la...

[Verse 1]
Dm Am C G
I'm in this apartment that I don't want no one to know
Dm Am C G
Dressed up for stages and faces in similar clothes
Dm Am C G
And always I'm venting and always inventing a song, ooh
Dm Am C G
And always ascending drifting into the unknown

[Verse 2]
Dm Am C G
Communication is so amazing when shown
Dm Am C G
As we awaken and all the pages unfold
Dm Am C G
From such a beautiful life (x2)
Ooh ooh

[Hook]

[Beat Switch]

[Bridge]
From such a beautiful life (x2)

[Hook]