So Good

B.o.b

Album: Strange Clouds
Genero: Rap

Tablatura (Ver letra)

Hey! Here's the tab for So Good by B.o.B. You can use a strumming pattern or just
pluck the notes, it's up to you. I prefer to use a strumming pattern.

Hope this helps! :)

Intro and verses:

[tab]E--12-12-12-12-12----7-7---8--8--8--8--8--8----3-3-|
B--13-13-13-13-13----8-8---10-10-10-10-10-10---5-5-|
G--14-14-14-14-14----9-9---10-10-10-10-10-10---5-5-|
D--------------------------------------------------|
A--------------------------------------------------|
E--------------------------------------------------|[/tab]

Pre-chorus: (feel free to use a strumming pattern)

[tab]E--5--
B--7--
G--7--
D-----
A-----
E-----[/tab]

Chorus (x3) : (once again, feel free to use a strumming pattern!)

[tab]E--3-3-3-3-3-3-3-3-3-3-3-3--3-3-3-3-|
B--5-5-5-5-5-5-5-5-5-5-5-5--3-3-3-3-|
G--5-5-5-5-5-5-5-5-5-5-5-5--4-4-4-4-|
D---------------------------5-5-5-5-|
A-----------------------------------|
E-----------------------------------|[/tab]

Pre-verse:(if that makes sense)

[tab]E--5-5-5-5-5-5-5-5--8--8--8--8--8--8--8--8--|
B--7-7-7-7-7-7-7-7--10-10-10-10-10-10-10-10-|
G--7-7-7-7-7-7-7-7--10-10-10-10-10-10-10-10-|
D-------------------------------------------|
A-------------------------------------------|
E-------------------------------------------|[/tab]

Then go back to the verse!