Pelikula

B.o.b

Genero:

Tablatura

[tab]e|----------------------------------------------------------------------------------------|
B|----------13~-12~-----13-12---/10----10-12/13-12----10----13-13-12-10-------------------|
G|---/12-12----------12------------12--------------12------------------12-----------------|
D|----------------------------------------------------------------------------------------|
A|----------------------------------------------------------------------------------------|
E|----------------------------------------------------------------------------------------|[/tab]

[tab]e|----------------------------------------------------------------------------------------|
B|-------------12---------13-13-13-12-10-----------10~----------------15-15-15-15-15------|
G|---12-12-14-----12--------------------------------------12--12/16-----------------------|
D|----------------------------------------------------------------------------------------|
A|----------------------------------------------------------------------------------------|
E|----------------------------------------------------------------------------------------|[/tab]

1st post.. hope you like it.
-Jay Em Pineda