Magic

B.o.b

Album: B.o.B Presents: The Adventures of Bobby Ray
Genero: Rap

Tablatura (Ver letra)

Tabbed by: Tansino
This is my first tab so, yeah, I tried. This song is REALLY
easy and is basically the same thing over and over again.
Standard Tuning.

[tab]Chorus
3x Play on the 4th time. 4x
e--------------------|--------------------|--------------------|
B--------------------|--------------------|--------------------|
G------9-9-----------|------9-9-----------|------9-9-----------|
D-9-9--9-9--6-6--4-4-|-9-9--9-9--6666-4444|-9-9--9-9--6-6--4-4-|
A-9-9--7-7--6-6--4-4-|-9-9--7-7--6666-4444|-9-9--7-7--6-6--4-4-|
E-7-7-------4-4--2-2-|-7-7-------4444-2222|-7-7-------4-4--2-2-|[/tab]

[tab]Verse
5x Play on 6th time.
e---------------------|---------------------|
B---------------------|---------------------|
G---------------------|---------------------|
D---------------------|---------------------|
A------7-7------------|------7-7------------|
E-7-7-------4-4--2-2--|-7-7-------4444-2222-|[/tab]

Thanks this song is awesome. I don't listen to B.o.B, but Rivers
and Weezer are awesome so I thought I'd learn it and tab it out
for anyone that might actually want to learn this song...