Dime

Beth

Genero: Pop

Tablatura

aqui esta el temazo de beth,
espero que os guste esta transcripcion,
tambien van los arreglos de guitarra española
NOTAS:
los punteos se tocan rápidamente, es mejor oir la cancion varias veces
para poder cojer el ritmo

en la parte
A
m a M I F#
e|-5-5-5-5--3--2--0-------------|------------------------------|
B|------------------------------|-2-0--------------------------|
G|------------------------------|-----3------------------------|
D|------------------------------|------------------------------|
A|------------------------------|------------------------------|
E|------------------------------|------------------------------|

el m a M I
se toca el meñique, anular, medio e indice como si fuera un rasgueo
pero solo sobre esa cuerda

_______________________________________________________________

Bm G
e|------------------------------|---------0--------------------|
B|---0-2-3----------------------|-2-0-2-3---3-2-3--------------|
G|-0----------------------------|------------------------------|
D|------------------------------|------------------------------|
A|------------------------------|------------------------------|
E|------------------------------|------------------------------|

A F#
e|------------------------------|-3p2p0h3p2p0h2h3h5------------|
B|-2-3-2------------------------|------------------3p2---------|
G|------------------------------|----------------------3-------|
D|------------------------------|------------------------------|
A|------------------------------|------------------------------|
E|------------------------------|------------------------------|

Bm G
e|------------------------------|---------0--------------------|
B|---0-2-3----------------------|-2-0-2-3---3-2-3--------------|
G|-0----------------------------|------------------------------|
D|------------------------------|------------------------------|
A|------------------------------|------------------------------|
E|------------------------------|------------------------------|

A F#
e|------------------------------|-------------2---0------------|
B|-2-3-2------------------------|---------2--------------------|
G|------------------------------|-----3------------------------|
D|------------------------------|-4----------------------------|
A|------------------------------|------------------------------|
E|------------------------------|------------------------------|

Bm G
e|------------------------------|------------------------------|
B|-3-2-3------------------------|---0-2-3-2-0-2-3--------------|
G|------------------------------|------------------------------|
D|------------------------------|-4----------------------------|
A|------------------------------|------------------------------|
E|------------------------------|------------------------------|

A
m a M I F#
e|-5-5-5-5--3--2--0-------------|------------------------------|
B|------------------------------|-2-0--------------------------|
G|------------------------------|-----3------------------------|
D|------------------------------|------------------------------|
A|------------------------------|------------------------------|
E|------------------------------|------------------------------|

Bm
Mar en calma
G
en un atardecer
D
y todo vuelve a ser
A
como era entonces

e|-0-2--------------------------|
B|-----3-2-3--------------------|
G|------------------------------|
D|------------------------------|
A|------------------------------|
E|------------------------------|

Bm
juego con
G
la arena entre mis pies
D A
dibujando sin querer
tu nombre

e|------------------------------|
B|-2-3-2-3----------------------|
G|---------2-0------------------|
D|------------------------------|
A|------------------------------|
E|------------------------------|

D A
Cuantas veces te llame en la noche
D A
cuantas veces te busque

e|---------0--------------------|
B|-----2-3---3-2-3--------------|
G|---2--------------------------|
D|-2----------------------------|
A|------------------------------|
E|------------------------------|

Bm D
todos mis recuerdos
G
yo vuelvo
F#
y no pierdo la fe

Bm G
Dime que es lo que puedo hacer
D
como te puedo tener

e|-----------2-5-2-3------------|
B|-3-2-0-2-3--------------------|
G|------------------------------|
D|------------------------------|
A|------------------------------|
E|------------------------------|

Em F#
en mi vida

Bm G
vamos a olvidar el ayer
D
y a comenzar otra vez

e|-----0-2-3-5-7/9--------------|
B|---3--------------------------|
G|------------------------------|
D|-4----------------------------|
A|------------------------------|
E|------------------------------|

Em F#
sin mentiras

Bm G
Dime que es lo que puedo hacer
D
como te puedo tener

e|-9-9-9-7-5--------------------|
B|-----------8-7----------------|
G|------------------------------|
D|------------------------------|
A|------------------------------|
E|------------------------------|

Em F#
en mi vida

nooooooooooooooooooooooouououoooooooooooooooooooooooo
Bm G
e|------------------------------|------------------------------|
B|-3-2-3------------------------|---0-2-3-2-0-2-3--------------|
G|------------------------------|------------------------------|
D|------------------------------|-4----------------------------|
A|------------------------------|------------------------------|
E|------------------------------|------------------------------|

A
m a M I F#
e|-5-5-5-5--3--2--0-------------|------------------------------|
B|------------------------------|-2-0--------------------------|
G|------------------------------|-----3------------------------|
D|------------------------------|------------------------------|
A|------------------------------|------------------------------|
E|------------------------------|------------------------------|

Bm
Me han contado
G
que tu estas igual
D
y que te sientes mal
A
como yo

e|--10-9-7-5--------------------|
B|-----------8-7-5-3------------|
G|------------------------------|
D|------------------------------|
A|------------------------------|
E|------------------------------|

Bm
no permitas
G
que el orgullo sea
D
quien decida
A
porlos dos

e|------------------------------|
B|---0-2-3-2-0-3----------------|
G|-2----------------------------|
D|------------------------------|
A|------------------------------|
E|------------------------------|

D A
que tu sabes que te quiero
D A
y todo lo que dije no es verdad

e|-----------0-2-5-3------------|
B|-3-2-0-2-3--------------------|
G|------------------------------|
D|------------------------------|
A|------------------------------|
E|------------------------------|

Bm D
deja tus miedos
G
podemos
F#
si quieres volverlo a intentar

e|-3p2p0h3p2p0h2h3h5------------|
B|------------------3p2---------|
G|----------------------3-------|
D|------------------------------|
A|------------------------------|
E|------------------------------|

Bm G
Dime que es lo que puedo hacer
D
como te puedo tener

e|-5h7p5-3-2-0------------------|
B|-------------3-2--------------|
G|-----------------3------------|
D|------------------------------|
A|------------------------------|
E|------------------------------|

Em F#
en mi vida

Bm G
vamos a olvidar el ayer
D
y a comenzar otra vez

e|---7-9-10-12-9-10-9-----------|
B|-7----------------------------|
G|------------------------------|
D|------------------------------|
A|------------------------------|
E|------------------------------|

Em F#
sin mentiras

Bm G
Dime que es lo que puedo hacer
D
como te puedo tener

e|-2-3-2-0----------------------|
B|---------3-2-0----------------|
G|---------------4-3------------|
D|------------------------------|
A|------------------------------|
E|------------------------------|

Em F#
en mi vida
Bm D
que tu y yo sabemos
A F#
que no podemos seguir asi
Ab
y vuelve junto a mi.

C#m A
Dime que es lo que puedo hacer
E
como te puedo tener

e|-------------4----------------|
B|-2h4p2h4-2-0------------------|
G|------------------------------|
D|------------------------------|
A|------------------------------|
E|------------------------------|

F#m G
en mi vida

C#m A
vamos a olvidar el ayer
E
y a comenzar otra vez

e|-4-5-4-2-0-----0--------------|
B|-----------4-2---4------------|
G|------------------------------|
D|------------------------------|
A|------------------------------|
E|------------------------------|
F#m G
sin mentiras

C#m A
Dime que es lo que puedo hacer
E
como te puedo tener

e|---7-9-11-12-11-9-11----------|
B|-7----------------------------|
G|------------------------------|
D|------------------------------|
A|------------------------------|
E|------------------------------|

F#m G
en mi vida
C#m A
e|------------------------------|------------------------------|
B|-4-5-4------------------------|---2-4-5-4-2-4-5--------------|
G|------------------------------|-1----------------------------|
D|------------------------------|------------------------------|
A|------------------------------|------------------------------|
E|------------------------------|------------------------------|

B
m a M I G#
e|-7-7-7-7--5--4--2-------------|------------------------------|
B|------------------------------|-4-2--------------------------|
G|------------------------------|-----5------------------------|
D|------------------------------|------------------------------|
A|------------------------------|------------------------------|
E|------------------------------|------------------------------|

C#m C#m B C#m
dime dimelo

_______________________________________________________________

para cualquier otra duda, peticion, amenaza de muerte etc.:

.:nosoyunmuneco@hotmail.com:.