The Night Begins To Shine

B.e.r.

Genero: Rock

Tablatura (Ver letra)

-------------------------------------------------------------------------------
The Night Begins to Shine - B.E.R.
-------------------------------------------------------------------------------
Tabbed by: 123kcjoseph
E-mail: lisztjoseph@yahoo.com.hk

Tuning:

[tab][Intro]
e|7-----7-----7----- 5-----5-----5----- 7-----7-----7-8-7--|
B|--8-5---8-5---8-5- --7-----7-----7--- --8-5---8-5------8-|
G|------------------ ----7-----7-----7- -------------------|
D|------------------ ------------------ -------------------|
A|------------------ ------------------ -------------------|
E|------------------ ------------------ -------------------|[/tab]

[tab]e|5-----5-----5-7- 0----------------------------------------------------------|
B|--7-----7------- -----------------------------------------------------------|
G|----7-----7----- -----------------------------------------------------------|
D|---------------- -----------------------------------------------------------|
A|---------------- -----------------------------------------------------------|
E|---------------- -----------------------------------------------------------|[/tab]