Whever He Leads I Will Go

B.b. Mckinney

Genero:

Tablatura

-------------------------------------------------------------------------------
wherever he leads i will go - B. B. mickinney
-------------------------------------------------------------------------------
Tabbed by:
E-mail:
key of F
Tuning:E-A-D-G-B-e

[tab]e|---------------------------------------------------------------------------|
B|-----------------------1--1------------------------------------------0-----|
G|-----2---2---3-----3------------0--2---2---2------0------2---2---3---------|
D|-----3---3---2-----2---3--3---3-3--3---3---3--3---2------3---3---3---3-----|
A|--3--------------------------------------------------3---------------------|
E|---------------------------------------------------------------------------|[/tab]
[tab] take up thy cross and follow me I hear my master say I gave my life to
e|---------------------------------------------------------------------------|
B|-1--1----------------------------------------------------------------------|
G|--------------0--2-2---2----3----------------------------------------------|
D|-3--1----3----3--3-3---3----2---2-3----------------------------------------|
A|---------5----------------------3-3----------------------------------------|
E|---------------------------------------------------------------------------|[/tab]
[tab] ransom thee surrender your all today
e|-----------------------------------------------------------------------------------|
B|------------------------------------1-1---1--------1-----------------------------0-|
G|-----------2-2--2---2-----0-------2-2-2---2---2---------0--------2-2---2---3-------|
D|-------------3--3---2-----2---3---3-----------3----3----2----------3---3---3-----3-|
A|--------3--3------------------------------------------------3----3-----------------|
E|-----------------------------------------------------------------------------------|[/tab]
[tab]chorus: wherever he leads i'll go wherever He leads i'll go i'll follow my christ who
e|---------------------------------------------------------------------------|
B|--1------------------------------------------------------------------------|
G|-------2------0-2--2--2---3------------------------------------------------|
D|--3----2--3---3-3--3--3---2----2----3--------------------------------------|
A|----------5--------------------3----3--------------------------------------|
E|---------------------------------------------------------------------------|
loves me so wherever He leads I'll go [/tab]


************************************

| / slide up
| \ slide down
| h hammer-on
| p pull-off
| ~ vibrato
| + harmonic
| x Mute note
| b Bend
| pb Pre-bend
| br Bend release
| pbr Pre-bend release
| brb Bend release bend

************************************