The Nail Scarred Hand

B.b. Mckinney

Genero:

Tablatura

-------------------------------------------------------------------------------
The nail scarred hand- B.B. mckinney
-------------------------------------------------------------------------------
Tabbed by:
E-mail:
key of F
Tuning:E-A-D-G-B-e

[tab]e|---------------------------------------------------------------------------|
B|---------------------------------------1-------1------1--------------------|
G|-----------2-----1---2--------2--3-----2-------2------2----------2----0---0|
D|------3----3-----3---3----3---3--5-------------------------3-----3----2---2|
A|-3----3--------------------------------------------------------------------|
E|---------------------------------------------------------------------------|[/tab]
[tab] have you failed in your plan of your stormed tossed life place your hand in
e|---------------------------------------------------------------------------|
B|----------1--------------------------------------------1----1-----1--------|
G|-2---3-------------2-----------2-1---2---------2---3---2----2-----2--------|
D|-2---2----2--------3-------3---3-3---3---3-----3---5--------------------3--|
A|-----------------------3---3-----------------------------------------------|
E|---------------------------------------------------------------------------|[/tab]
[tab] the nail scarred hand are you weary and word from its toil and strife place
e|---------------------------------------------------------------------------|
B|---------------------------------------------------------------------------|
G|-2----0----0--2---3--------------------------------------------------------|
D|-3----2----2--2---2-----2-------3------------------------------------------|
A|------------------------3-------3------------------------------------------|
E|---------------------------------------------------------------------------|[/tab]
[tab] your hand in the nail scarred hand
e|-----------------------------------------------------------------------------------------------|
B|--------1-----1----3---3--3-----------3----1-----1----1-----0----------------0-------1---------|
G|------------------------------3---------------------------------0--0---2-----------------------|
D|--------3-----3----3---3--3---3-------3----3-----3----3-----3---3--3---3-----3-------2-------3-|
A|-----------------------------------------------------------------------------------------3---3-|
E|-----------------------------------------------------------------------------------------------|[/tab]
[tab]chorus: place your hand in the nail scarred hand place your hand in the nail scarred hand He will
e|---------------------------------------------------------------------------------|
B|-------------------------------1----3------3-----3----1--------------------------|
G|-2----1--2-------2-----2----3-----------------------------0--2----3--------------|
D|-3----3--3---3---3-----3----3--3----3------3-----3----3---2--2----2----2-------3-|
A|-----------------------------------------------------------------------3-------3-|
E|---------------------------------------------------------------------------------|
keep to the end he's your dearest friend place your hand in the nail scarred hand
************************************[/tab]

| / slide up
| \ slide down
| h hammer-on
| p pull-off
| ~ vibrato
| + harmonic
| x Mute note
| b Bend
| pb Pre-bend
| br Bend release
| pbr Pre-bend release
| brb Bend release bend

************************************