You Done Lost Your Good Thing Now

B.b. King

Genero: R-b

Tablatura

Learned it by ear, may not be 100% accurate.
Live at the Regal - https://www.youtube.com/watch?v=okNXLdF06co

[tab][Intro]
e|--------------------8--5--------5--8b--------10b12--10-8-----------8~--10br-p8-----------8-10br--8-10--8-|
B|--------5-----------x----h7---------------10--------------10--7-10-------------h10--7-10-----------------|
G|-----/6---6---------x------------------------------------------------------------------------------------|
D|------------7-------x------------------------------------------------------------------------------------|
A|--------------7-----x------------------------------------------------------------------------------------|
E|---------------------------------------------------------------------------------------------------------|[/tab]

[tab]e|-----------------------------------------------------12------------12-14---------------------------------|
B|--10-10p7-------------10-12----10-----10--12b-12-10-----10--10-12b-------12b-----------------------------|
G|------------------/11-------11-----11--------------------------------------------------------------------|
D|---------------------------------------------------------------------------------------------------------|
A|---------------------------------------------------------------------------------------------------------|
E|---------------------------------------------------------------------------------------------------------|[/tab]


[tab]e|---------------------------------------------5--8b-5----------------------12-10--------------------------|
B|----/10--------------------------------------5-------7---------------10----------12br-10-12----10--------|
G|--------9--7-6--9-8-7-6--------------------5------------7-4-4----/11------------------------11-----------|
D|-------------------------7-------------4-7---------------------------------------------------------------|
A|----------------------------7-6-5--4-7-------------------------------------------------------------------|
E|---------------------------------------------------------------------------------------------------------|[/tab]

[tab]e|----14b--12-10-------------------------------------------------------------------------------------------|
B|---------------12b--10h12p10------10---------------------------------------------------------------------|
G|------------------------------11------11-----------------------------------------------------------------|
D|---------------------------------------------------------------------------------------------------------|
A|---------------------------------------------------------------------------------------------------------|
E|---------------------------------------------------------------------------------------------------------|[/tab]


************************************

| p Pull-off
| b Bend
| br Bend release
| ~ Vibrato
| x Dead note
| h Hammer-on
| / Slide up

************************************