Worry Worry Worry

B.b. King

Album: Live at the Regal
Genero: R-b

Tablatura (Ver letra)

[tab][E]
e|------------|
B|---------10-|
G|--9--11-----|
D|------------|
A|------------|
E|------------|[/tab]

[tab] [A1] [D2] [A3] [A4]
e|--------------------|---------10-12-------------10-12-|--------12b14-12-|—----------------------|
B|-12b14-10--10-10~\--|------10--------12b14-10~--------|-12b14-----------|--10~\--12b14--10~--10-|
G|--------------------|--9/11---------------------------|-----------------|-----------------------|
D|--------------------|---------------------------------|-----------------|-----------------------|
A|--------------------|---------------------------------|-----------------|-----------------------|
E|--------------------|---------------------------------|-----------------|-----------------------|[/tab]

[tab] [D5] [D6]ripe [A7] [A8]
e|-------10-10-10-10-10-10--10-12---------------|---17\----------|-----------------|------------------------|
B|-13b15---------------------------12b14-10~10~-|------15b17-15--|-14b15r14~~-10~--|-12b14-12b14--10-10~—10-|
G|----------------------------------------------|----------------|-----------------|------------------------|
D|----------------------------------------------|----------------|-----------------|------------------------|
A|----------------------------------------------|----------------|-----------------|------------------------|
E|----------------------------------------------|----------------|-----------------|------------------------|[/tab]

[tab] [E9] [D10]
e|--------10~--10b11-10--------------------|-----------------------|
B|--12b13---------------13b14-10-10--13b15-|--13-10~---------10-12-|
G|-----------------------------------------|---------11x--11-------|
D|-----------------------------------------|-----------------------|
A|-----------------------------------------|-----------------------|
E|-----------------------------------------|-----------------------|[/tab]

[tab] [A11.1] [D11.2] [A12.1] [E12.2] (E7)
e|------------12------------------------|---------------5------------------------------|
B|-12b13r12------10~--12b13-12-10-(10)--|-12b14r12b14-----7------5---------5-5------10-|
G|--------------------------------------|-------------------5h6------------7-7--9/11---|
D|--------------------------------------|----------------------------------6-6---------|
A|--------------------------------------|---------------------------7------7-7---------|
E|--------------------------------------|----------------------------------------------|[/tab]



************************************

| b Bend
| ~ Vibrato
| / Slide up
| \ Slide down
| r Release
| x Dead note
| (n) Ghost note
| h Hammer-on

************************************