Woke Up This Morning

B.b. King

Album: Singin’ the Blues
Genero: Pop R-b

Tablatura (Ver letra)

[Intro]

[tab]e|-13-----10--------------------------13-----10------------------------------|
B|-------------13------10-------------------------13-----10------------------|
G|-------------------------11^-11-----------------------------11^-11---------|
D|---------------------------------------------------------------------------|
A|---------------------------------------------------------------------------|
E|---------------------------------------------------------------------------|[/tab]

[tab]e|-13-----11--------------------------13-----10------------------------------|
B|-------------13-----10--------------------------13-----10------------------|
G|-------------------------11-10------------------------------11^-11---------|
D|---------------------------------------------------------------------------|
A|---------------------------------------------------------------------------|
E|---------------------------------------------------------------------------|[/tab]

[tab]e|-13-----10--------------------------13-----11------------------------------|
B|-------------13-----10--------------------------13-----11------------------|
G|-------------------------12^-12-----------------------------11^-11---------|
D|---------------------------------------------------------------------------|
A|---------------------------------------------------------------------------|
E|---------------------------------------------------------------------------|[/tab]