There Is Something On Your Mind

B.b. King

Genero:

Tablatura

Standard Tuning, 33 beat
Intro:
------------------------------------------------------------------

[tab]e---------------|
b---------------|
d-----------10-7|
g-3-3-5-7-8-----|
a---------------|
E---------------|[/tab]

[tab]e---------------------------------|
b---------------------------------|
d-----------10-12-15-10-12-10-12-3|
g-3-3-5-7-8-----------------------|
a---------------------------------|
E---------------------------------|[/tab]

[tab]e-10-8-6-3-6-10-8|
b----------------|
d----------------|
g----------------|
a----------------|
E----------------|[/tab]

[tab]e-------13-15-13-10|
b-6-6-8------------|
d------------------|
g------------------|
a------------------|
E------------------|[/tab]

[tab]e-1-3-13-13-13-11-11-11-10-10-10
b-------------------------------
d-------------------------------
g-------------------------------
a-------------------------------
E-------------------------------[/tab]

[tab]e-8-8-8-6-6-6-3-6-10-6|
b---------------------|
d---------------------|
g---------------------|
a---------------------|
E---------------------|[/tab]

Verses:
There is something on your mind
A:

[tab]e-10-10-6|
b--------|
d--------|
g--------|
a--------|
E--------|[/tab]

By the way you look at me
B:

[tab]e-10-10-6-6|
b----------|
d----------|
g----------|
a----------|
E----------|[/tab]

There is something on your mind baby
C:

[tab]e-----------|
b-6-13-15-11|
d-----------|
g-----------|
a-----------|
E-----------|[/tab]

by the way you look at me
D:

[tab]e-----------13-10-6|
b-6-8-11-13--------|
d------------------|
g------------------|
a------------------|
E------------------|[/tab]



[tab]and what your thinking brings happiness
E:
s
e-8-13-13-12-10-6|
b----------------|
d----------------|
g----------------|
a----------------|
E----------------|[/tab]

oh! and it brings misery
F:

[tab]e-10-8-6-6-3-6-10-6|
b------------------|
d------------------|
g------------------|
a------------------|
E------------------|[/tab]

after that you can just repeat A-F, add a little ad-lib and thats pretty
much the entire song