The Thrill Is Gone

B.b. King

Album: Completely Well
Genero: Rock

Tablatura (Ver letra)

THE THRILL IS GONE
As recorded by B.B. King
(From the 1999 Album HIS DIFINITIVE GREATEST HITS)


Words and Music by Roy Hawkins & Rick Darrell

Gtr I (E A D G B E) - 'B.B. King - lead - clean electric'
Gtr II (E A D G B E) - 'rhythm - clean electric'


[Intro]

[tab] Q=88
4/4
Gtr I
~~~~ ~~~~~~ ~~~
H. E E E E E a +e E E E E E E e E +Q E S +S
e|------------------|-10b10.5-------------------------|---------------------------|
B|---^12-------12---|---------12-10-------------------|---------------------------|
G|---^-x------------|---------------9b11-(11)-7-7-9---|-7------------7-9b11==(11)-|
D|---^-x------------|-------------------------------9-|---9-9-9-(9)---------------|
A|------------------|---------------------------------|---------------------------|
E|------------------|---------------------------------|---------------------------|[/tab]
|
[tab] | Gtr II
| ~~~~
| a W +W W
e|------------------|---------------------------------|---------------------------|
B|-6s==7------------|-(7)-----------------------------|---------------------------|
G|-6s==7------------|-(7)-----------------------------|---------------------------|
D|-6s==7------------|-(7)-----------------------------|---------------------------|
A|------------------|---------------------------------|---------------------------|
E|------------------|---------------------------------|---------------------------|[/tab]


[tab] ~~~~ ~~~~~ ~~
+Q E e H a +Q. E Q Q
e|----------7---------|-10b12-(12)---10b10.5--------|
B|--------7-----------|----------------------12-----|
G|-(11)r--------------|-----------------------------|
D|--------------------|-----------------------------|
A|--------------------|-----------------------------|
E|--------------------|-----------------------------|[/tab]
|
[tab] | ~~~~
| H E E E E W
e|--------------------|-----------------------------|
B|--------------------|-----------------------------|
G|--------------------|-----------------------------|
D|--------------------|-----------------------------|
A|------------7s9s7-5-|---------7-------------------|
E|--------------------|-----------------------------|[/tab]


[tab] ~~~~
Q E E E E E E a +Q a +Q Q E a +E
e|---------10b10.5-10pb11-10pb11-10pb11-10pb11-|-10b12-(12)--10b11-(11)---------10b12==(12)---|
B|------12-------------------------------------|-------------------------12--12---------------|
G|---------------------------------------------|----------------------------------------------|
D|---------------------------------------------|----------------------------------------------|
A|---------------------------------------------|----------------------------------------------|
E|---------------------------------------------|----------------------------------------------|[/tab]
|
[tab] | +W W
e|---------------------------------------------|----------------------------------------------|
B|---------------------------------------------|----------------------------------------------|
G|---------------------------------------------|----------------------------------------------|
D|---------------------------------------------|----------------------------------------------|
A|-(7)-----------------------------------------|----------------------------------------------|
E|---------------------------------------------|----------------------------------------------|[/tab]


[tab] ~~~ ~~~ ~~~~~~~~
+E Q. Q Q E E E E Q e E
e|-(12)r-10-----------------------|-10-12-12-10b10.5------------|
B|-------------------------12-----|------------------12----12---|
G|--------------------------------|-----------------------------|
D|--------------------------------|-----------------------------|
A|--------------------------------|-----------------------------|
E|--------------------------------|-----------------------------|[/tab]
|
[tab] | Q a E E a E E S S E E E E E +E E e E
e|--------------------------------|-----------------------------|
B|--------------------------------|-----------------------------|
G|---------------7-7-(7)-7--------|-----------4------(4)----4---|
D|---------------7-7h=9--7--------|--------4-------------4------|
A|-----------7h9------------9s7-5-|-----5-----------------------|
E|--------------------------------|--3------------------------0-|[/tab]


[tab] ~~~ ~~
Q E a +e Q S E. Q. E Q Q
e|-----12-12b14-(14)------10h12--|-10b10.5---10b10.5-----10b10.5----|
B|-------------------------------|-------------------12-------------|
G|-------------------------------|----------------------------------|
D|-------------------------------|----------------------------------|
A|-------------------------------|----------------------------------|
E|-------------------------------|----------------------------------|[/tab]
|
[tab] | ~~~~~~~
| E E E E E Q. W
e|-------------------------------|----------------------------------|
B|-------------------------------|----------------------------------|
G|------4--------------3---------|----------------------------------|
D|---4---------------2-----------|----------------------------------|
A|-------------------------------|--2-------------------------------|
E|-2--------------2--------------|----------------------------------|[/tab]


[tab] e E Q Q q W W W
e|-12-------------7---||------------|----------|----------------|
B|----------------7---||------------|----------|----------------|
G|--------------------||------------|----------|----------------|
D|--------------------||------------|----------|----------------|
A|--------------------||------------|----------|----------------|
E|--------------------||------------|----------|----------------|[/tab]
|
[tab] | ~
| Q E. S a Q E E a W W Q a Q a H
e|--------------------||------------|----------|----------------|
B|--------------------||------------|----------|----7s9--9s7----|
G|--------------------||------------|----------|----7s9--9s7----|
D|----------------7---||-7s9--------|----------|----7s9--9s7----|
A|--5---7--5-7s9----9-||------------|----------|----------------|
E|--------------------||------------|----------|----------------|[/tab]


[tab] Gtr II
+Q E a E +E a E +Q W +W H E a E +Q
e|--------------------------------|----------|------------|-----------------|
B|-(7)----10s12-(12)-12s14-(14)\--|-8--------|-(8)--------|-----------------|
G|-(7)-----7s=9--(9)--9s11-(11)\--|-9--------|-(9)--------|-----------------|
D|-(7)-----7s=9--(9)--9s11-(11)\--|-9--------|-(9)--------|-----------------|
A|--------------------------------|----------|------------|--------7s9-(9)--|
E|--------------------------------|----------|------------|-----------------|[/tab]


[tab] Q E a E Q a Q Q E E +H Q E E +H H +E E a E E
e|-------------------|---------------|---------------|------------------|
B|-------------------|---------------|---------------|------------------|
G|-------------------|------4-(4)----|----4p3-(3)----|------------------|
D|-------------------|----4----------|------2-(2)----|------------------|
A|-----------5-------|---------------|---------------|-2----(2)---9s7-5-|
E|-/7----5s7----7s5--|-3-------------|-2-------------|------------------|[/tab]


[Verse]

[tab] Gtr I
H Q a E E H Q q W H E e Q
e|------------------------||-----------7--|----------|-------------|
B|------------------------||-----------7--|----------|--------7----|
G|--------------9p7b7.5---||--------------|----------|-------------|
D|------------------------||--------------|----------|-------------|
A|------------------------||--------------|----------|-------------|
E|------------------------||--------------|----------|-------------|[/tab]
|
[tab] | Gtr II
| ~
| H +E a E E E a W W W
e|------------------------||--------------|----------|-------------|
B|------------------------||--------------|----------|-------------|
G|------------------------||--------------|----------|-------------|
D|----------------7-------||-7h9----------|----------|-------------|
A|----------7s9---------9-||--------------|----------|-------------|
E|-7----(7)---------------||--------------|----------|-------------|[/tab]


[tab] Gtr I
Q a +Q a +Q a +Q
e|----------------------------------------|
B|----10b12-(12)--10b12-(12)--10b12-(12)--|
G|----------------------------------------|
D|----------------------------------------|
A|----------------------------------------|
E|----------------------------------------|[/tab]

[tab] ~~
Q Q H Q a +E. S H
e|-------------|----10b12-(12)-10b10.5-------|
B|-10----------|-----------------------12----|
G|-------------|-----------------------------|
D|-------------|-----------------------------|
A|-------------|-----------------------------|
E|-------------|-----------------------------|[/tab]


[tab] +H Q S E. W W W
e|-----------------|----------|----------|------|
B|-(12)------------|----------|----------|------|
G|------------9p7--|----------|----------|------|
D|-----------------|----------|----------|------|
A|-----------------|----------|----------|------|
E|-----------------|----------|----------|------|[/tab]


[tab] [Guitar Solo]
~~
W H Q E E Q Q E E E E
e|----------|---------------||----------10b10.5-10b10.5----|
B|----------|-----------7---||-12-----------------------12-|
G|----------|---------------||-----------------------------|
D|----------|---------------||-----------------------------|
A|----------|---------------||-----------------------------|
E|----------|---------------||-----------------------------|[/tab]
|
[tab] | Gtr II
| W H Q a Q W
e|----------|---------------||-----------------------------|
B|----------|---------------||-----------------------------|
G|----------|---------------||-----------------------------|
D|----------|---------------||-----------------------------|
A|----------|---------7s9---||-----------------------------|
E|----------|---------------||--7--------------------------|[/tab]


[tab] ~~~
Q Q E E E E
e|----------------10b10.5-12--|
B|-12--------12---------------|
G|----------------------------|
D|----------------------------|
A|----------------------------|
E|----------------------------|[/tab]
|
[tab] | +H Q a Q
e|----------------------------|
B|----------------------------|
G|----------------------------|
D|----------------------------|
A|--------------7s=9----------|
E|-(7)------------------------|[/tab]


[tab] S +S E e E E E E a +e
e|-12pb14r(12)---12---10b11---12-12b14-(14)-|
B|------------------------------------------|
G|------------------------------------------|
D|------------------------------------------|
A|------------------------------------------|
E|------------------------------------------|[/tab]
|
[tab] | W
e|------------------------------------------|
B|------------------------------------------|
G|------------------------------------------|
D|------------------------------------------|
A|------------------------------------------|
E|--7---------------------------------------|[/tab]


[tab] ~~
E E E E a +Q a +Q W H E e Q
e|--------10-12-10b10.5-(10.5)-----10b10.5-(10.5)---|-----------|----------19---19\--|
B|-----12-------------------------------------------|-12--------|--------------------|
G|--------------------------------------------------|-----------|--------------------|
D|--------------------------------------------------|-----------|--------------------|
A|--------------------------------------------------|-----------|--------------------|
E|--------------------------------------------------|-----------|--------------------|[/tab]
|
[tab] | +H a E. a S +E E W +H. a Q
e|--------------------------------------------------|-----------|--------------------|
B|--------------------------------------------------|-----------|--------------------|
G|--------------------------------------------------|-----------|--------------------|
D|--------------------------------------------------|-----------|--------------------|
A|---------------7s=======9----9s7------------(7)-5-|--7--------|-(7)---------7s=9---|
E|-(7)----------------------------------------------|-----------|--------------------|[/tab]


[tab] ~~~~~~~~~~
a +Q Q Q S S e a +Q E E Q E E
e|-10b12-(12)--10pb11--------------|------------------------------|
B|---------------------12--10------|------------------------------|
G|----------------------------12-9-|-------------------------9-12-|
D|---------------------------------|-12b12.5-(12.5)--9-12-9-------|
A|---------------------------------|------------------------------|
E|---------------------------------|------------------------------|[/tab]
|
[tab] | W H. Q
e|---------------------------------|------------------------------|
B|---------------------------------|------------------------------|
G|---------------------------------|------------------------------|
D|---------------------------------|------------------------------|
A|---------------------------------|------------------------------|
E|---------7-----------------------|------------7-----------------|[/tab]

[tab] ~~
e E E E E E E E e E E E +Q Q
e|------------------------------|------10-10pb12r(10)------|
B|-12---10b10.5-12--------10-12-|-12-------------------12--|
G|-----------------12--12-------|--------------------------|
D|------------------------------|--------------------------|
A|------------------------------|--------------------------|
E|------------------------------|--------------------------|[/tab]
|
[tab] | Q E E +H E E Q H
e|------------------------------|--------------------------|
B|------------------------------|--------------------------|
G|---------------4-(4)----------|-------4----------3-------|
D|-------4----------------------|----4---------------------|
A|------------------------------|--------------------------|
E|--3---------------------------|--2-----------------------|[/tab]



[Verse]

[tab] ~~~~
+W W Wx2
e|-------------|------------||--------|
B|-(12)--------|------------||--------|
G|-------------|------------||--------|
D|-------------|------------||--------|
A|-------------|------------||--------|
E|-------------|------------||--------|[/tab]
|
[tab] | W +W Wx2
e|-------------|------------||--------|
B|-------------|------------||--------|
G|-------------|------------||--------|
D|-------------|------------||--------|
A|---2---------|-(2)--------||--------|
E|-------------|------------||--------|[/tab]


[tab] Gtr II
~
H Q S E S E S S +S S S S +S E S +S E. W W
e|-------------2-|---2---------2------------------|----------|------|
B|---------3h5---|-3---------3---------3----------|----------|------|
G|---------------|-----6-(6)-----6-(6)---4-(4)-2--|-4--------|------|
D|---------------|--------------------------------|----------|------|
A|---------------|--------------------------------|----------|------|
E|---------------|--------------------------------|----------|------|[/tab]


[tab] H Q a Q Q. E +E Q E Q E E +H Q Q H
e|--------------|------------------|---------------|------------|
B|--------------|------------------|---------------|------------|
G|--------------|------------------|------4-(4)----|----4p=3----|
D|--------------|------------------|----4----------|-------2----|
A|---------7s9--|------------------|---------------|------------|
E|--------------|-7----5-(5)-7\--2-|-3-------------|-2----------|[/tab]


[Verse]

[tab] Gtr I
W H E E e E W H Q e E
e|-----------------|---------------------7---||---------------|---------7---|
B|-----------------|-----------------/7------||---------------|---------9---|
G|-----------------|-------------------------||---------------|-------------|
D|-----------------|-------------------------||---------------|-------------|
A|-----------------|-------------------------||---------------|-------------|
E|-----------------|-------------------------||---------------|-------------|[/tab]
|
[tab] | Gtr II
| H E E a E E E a E E E E a +E E E a +W W
e|-----------------|-------------------------||---------------|-------------|
B|-----------------|-------------------------||---------------|-------------|
G|-----------------|-------------------------||---------------|-------------|
D|---------------7-|-9-----------------------||---------------|-------------|
A|-/5------5-7s9---|---9s7-7-7-7-7b9-(9)-7-5-||-7b9-(9)-------|-------------|
E|-------7---------|-------------------------||---------------|-------------|[/tab]


[tab] Gtr I
H Q e E W W W
e|-------------|----------|----------|------|
B|---------7---|----------|----------|------|
G|-------------|----------|----------|------|
D|-------------|----------|----------|------|
A|-------------|----------|----------|------|
E|-------------|----------|----------|------|[/tab]


[tab] Gtr I
H Q e E W W W
e|---------7---|----------|-----------|-----------|
B|---------9---|----------|-----------|-----------|
G|-------------|----------|-----------|-----------|
D|-------------|----------|-----------|-----------|
A|-------------|----------|-----------|-----------|
E|-------------|----------|-----------|-----------|[/tab]
|
[tab] | Gtr II
| W W H H H H
e|-------------|----------|-----------|-----------|
B|-------------|----------|-----------|-----------|
G|-------------|----------|-----------|-----------|
D|-------------|----------|------4----|------2----|
A|-------------|----------|-----------|-----------|
E|-------------|----------|-3---------|-2---------|[/tab]


[tab][Outro]
~~
W H Q E E e E e E +E E Q
e|------------|-------------7-||---7--------------10b10.5-------|
B|------------|-----------7---||-------12-12-(12)---------------|
G|------------|---------------||--------------------------------|
D|------------|---------------||--------------------------------|
A|------------|---------------||--------------------------------|
E|------------|---------------||--------------------------------|[/tab]
|
[tab] | ~~~~~~~
| a W H Q a Q a Q Q E E E a E
e|------------|---------------||--------------------------------|
B|------------|---------------||--------------------------------|
G|------------|---------------||--------------------------------|
D|------------|---------------||-7h9----------------------------|
A|-4s5--------|---------7s9---||-------------------5------5-7s9-|
E|------------|---------------||--------7------7----------------|[/tab]


[tab] Q E E E E E E
e|---------10-12b12.5-12pb14-10b10.5---12--|
B|------12---------------------------------|
G|-----------------------------------------|
D|-----------------------------------------|
A|-----------------------------------------|
E|-----------------------------------------|[/tab]
|
[tab] | ~~~~~~~~
| E. S Q e E E a E
e|-----------------------------------------|
B|-----------------------------------------|
G|-----------------------------------------|
D|-----------------------------------------|
A|---------------------5------5------7s=9--|
E|-7--7--7-----7---------------------------|[/tab]


[tab] ~~
e E E E a +E Q.
e|--------10---12b14-(14)----------|
B|---12----------------------------|
G|---------------------------------|
D|---------------------------------|
A|---------------------------------|
E|---------------------------------|[/tab]
|
[tab] | ~~~~~~~
| a Q Q E E E a E
e|---------------------------------|
B|---------------------------------|
G|---------------------------------|
D|-7h=9----------------------------|
A|------------------------5--5-7s9-|
E|---------7-----------7-----------|[/tab]


[tab] ~~~~ ~~~
E E E S +S +Q +S +S E e E a +e E E Q.
e|---------10b10.5-12b14==(14)-(14)---(14)r(12)p==10-|---12---12b14-(14)---12---------|
B|----12---------------------------------------------|------------------------12------|
G|---------------------------------------------------|--------------------------------|
D|---------------------------------------------------|--------------------------------|
A|---------------------------------------------------|--------------------------------|
E|---------------------------------------------------|--------------------------------|[/tab]

[tab] | ~~~~~~~~~~~~~~~~ ~~~~~~~~~~~~~~~~~~~~~~~~~~
| E. S Q e E E a E a Q Q Q Q
e|---------------------------------------------------|--------------------------------|
B|---------------------------------------------------|--------------------------------|
G|---------------------------------------------------|--------------------------------|
D|---------------------------------------------------|--------------------------------|
A|----------------------------------5---5-------7s=9-|-5s=7-----------7-----7-----7---|
E|-7-----7--7--------------------7-------------------|--------------------------------|[/tab]


[tab] E E E E a +e E E E
e|--------10-12-12b14-(14)---12-----|
B|-----12---------------------------|
G|----------------------------------|
D|----------------------------------|
A|----------------------------------|
E|----------------------------------|[/tab]

[tab] | ~~~~~~~~~~~~~~~~~~~~~~
| a Q Q Q e a E
e|----------------------------------|
B|----------------------------------|
G|----------------------------------|
D|----------------------------------|
A|-5s7-----7------------7-----7-7s9-|
E|----------------------------------|[/tab]


[tab] ~~
E e a +E E Q E E E E a +E E E E E E
e|-12-10-10b10.5-(10.5)--------------|---7---------------------------|
B|------------------------12-------7-|-----10-------------7--------7-|
G|-----------------------------------|--------9b9.5-(9.5)---7---7----|
D|-----------------------------------|------------------------9------|
A|-----------------------------------|-------------------------------|
E|-----------------------------------|-------------------------------|[/tab]

[tab] | ~~ ~~~~~~~~~~~~~~~~~~~~~
| Q Q e E a E E a Q Q Q Q
e|-----------------------------------|-------------------------------|
B|-----------------------------------|-------------------------------|
G|-----------------------------------|-------------------------------|
D|---------------------------------7-|-7h9-------------9----9---9\---|
A|---------------------------5-7s9---|-------------------------------|
E|--7---------------7------7---------|-------------------------------|[/tab]


~~
|-3--| |-3--| |--3--|
[tab] E E E E E E S S S E Q E E Q E E E E
e|-7-7-10-10--9--9-9h10p9p7-|-------10\----------------10-|
B|--------------------------|-12---------------7-10-12----|
G|--------------------------|-----------------------------|
D|--------------------------|-----------------------------|
A|--------------------------|-----------------------------|
E|--------------------------|-----------------------------|[/tab]

[tab] | E E E E +H E Q. E Q.
e|--------------------------|-----------------------------|
B|--------------------------|-----------------------------|
G|---------4-(4)------------|-----------------------------|
D|------4-------------------|----4--------3---------------|
A|---5----------------------|---------------2-------------|
E|-3------------------------|--2--------------------------|[/tab]


[tab] ~~~
Q. E e E a +E E
e|------------------------------------|
B|-12---------------10----------------|
G|-----------------------9b11-(11)----|
D|------------------------------------|
A|------------------------------------|
E|------------------------------------|[/tab]

[tab] | Q a +Q H
e|------------------------------------|
B|------------------------------------|
G|------------------------------------|
D|------------------------------------|
A|------5b5.5-(5.5)-------------------|
E|--7----------------7----------------|[/tab]


[tab] E E E a +E E E E e
e|-----------------------------7-----7-|
B|---------------------------7---7-----|
G|------------7--9b11--(11)------------|
D|---9---------------------------------|
A|-------------------------------------|
E|-------------------------------------|[/tab]

[tab] | Q a +Q E e E a E
e|-------------------------------------|
B|-------------------------------------|
G|-------------------------------------|
D|-------------------------------------|
A|-----5b5.5-(5.5)-------------5-5-7s9-|
E|-7-------------------------7---------|[/tab]


[tab] ~~~
Q a +E E E E Q Q a +Q Q. E
e|----12b14--(14)---10-12-----------|----10b10.5-(10.5)-----------|
B|------------------------12\-------|--------------------12-------|
G|----------------------------------|-----------------------------|
D|----------------------------------|-----------------------------|
A|----------------------------------|-----------------------------|
E|----------------------------------|-----------------------------|[/tab]

[tab] | Q a +Q E e E a E Q a +Q H
e|----------------------------------|-----------------------------|
B|----------------------------------|-----------------------------|
G|----------------------------------|-----------------------------|
D|----------------------------------|-----------------------------|
A|-----5b5.5--(5.5)--------5--5-7s9-|-----5b5.5---(5.5)-----------|
E|-7--------------------7-----------|-7-------------------7-------|[/tab]


[tab] ~~~~
E E E E a +S +S E E a +E
e|------------10---12--12b14==(14)r(12)p10-12-12b14==(14)-|
B|---12---------------------------------------------------|
G|--------------------------------------------------------|
D|--------------------------------------------------------|
A|--------------------------------------------------------|
E|--------------------------------------------------------|[/tab]

[tab] | Q a +Q E e E a E
e|--------------------------------------------------------|
B|--------------------------------------------------------|
G|--------------------------------------------------------|
D|--------------------------------------------------------|
A|------5b5.5-(5.5)----------------------5--5--7s======9--|
E|-7----------------------------7-------------------------|[/tab]


[tab] ~~~~~~~
+Q E a +E Q a +E E E e e e e e e e
e|-(14)r------------10b10.5-(10)-----10b10.5-(10)------|----19-------19--19-19-19-19-19--|
B|--------------------------------------------------12-|-12------------------------------|
G|-----------------------------------------------------|---------------------------------|
D|-----------------------------------------------------|---------------------------------|
A|-----------------------------------------------------|---------------------------------|
E|-----------------------------------------------------|---------------------------------|[/tab]

[tab] | Q a +Q E e E a E Q a +Q H
e|-----------------------------------------------------|---------------------------------|
B|-----------------------------------------------------|---------------------------------|
G|-----------------------------------------------------|---------------------------------|
D|-----------------------------------------------------|---------------------------------|
A|--------5b5.5-(5)----------------5-----------5--7s=9-|-------5b5.5-(5)-----------------|
E|---7---------------------------7---------------------|--7------------------7-----------|[/tab]


~~~~~~
|--3--|
[tab] E E S S S E a +Q. E a +E +E E E +H
e|-19\----------9h=10p9p7-10b12-(12)-------(7)-|-10b12==(12)r(10)--------7--7-(7)---------|
B|---------------------------------------------|------------------------------------------|
G|---------------------------------------------|------------------------------------------|
D|---------------------------------------------|------------------------------------------|
A|---------------------------------------------|------------------------------------------|
E|---------------------------------------------|------------------------------------------|[/tab]

[tab] | Q a +Q E e E a E Q a +Q E e E a E
e|---------------------------------------------|------------------------------------------|
B|---------------------------------------------|------------------------------------------|
G|---------------------------------------------|------------------------------------------|
D|---------------------------------------------|------------------------------------------|
A|-------5b5.5-(5)-------------------5-5-7s=9--|------------------5b5.5-(5)-------5-5-7s9-|
E|--7-----------------------------7------------|----------7--------------------7----------|[/tab]


[tab] ~~~~~~~~~~~~~~~~~
Q E E E a +E E E Q +Q e e E E
e|----------------------------------------|-----------------------------------------------|
B|----------------7--10b11-(11)-10-10pb12-|-10pb12======(10)r====10----10--10b10.5-10pb12-|
G|-------7---9----------------------------|-----------------------------------------------|
D|----------------------------------------|-----------------------------------------------|
A|----------------------------------------|-----------------------------------------------|
E|----------------------------------------|-----------------------------------------------|[/tab]

[tab] | E E a E a E a E a Q. E a E E E a E a Q.
e|----------------------------------------|-----------------------------------------------|
B|----------------------------------------|-----------------------------------------------|
G|-------------7-(7)--7-----(7)-----------|--------------------7-(7)-7-(7)----------------|
D|---------7h9-7h=9---7h=====9------------|---------------7----7h=9--7h=9-----------------|
A|---5-7s9--------------------------------|---------7s9------9----------------------------|
E|-7--------------------------------------|-----------------------------------------------|[/tab]


[tab] ~~~~~~~ ~~~~~~~~~~~~~~
E +E Q +S s E Q H E E E E
e|--------------------------------------------|-----------------------------|
B|-10pb12r(10)-------10pb12===(10)r10---------|-----------------------------|
G|--------------------------------------------|---------------------------7-|
D|--------------------------------------------|----------------------9--9---|
A|--------------------------------------------|-----------------------------|
E|--------------------------------------------|-----------------------------|[/tab]

[tab] | Q a +Q E e E a E E E a E a E a E a Q.
e|--------------------------------------------|-----------------------------|
B|--------------------------------------------|-----------------------------|
G|--------------------------------------------|-------------7-(7)-7-(7)-----|
D|--------------------------------------------|---------7h9-7h=9--7h=9------|
A|-------------5b5.5-(5)--------------5-5-7s9-|---5-7s9---------------------|
E|--7---------------------------7-------------|-7---------------------------|[/tab]


[tab] ~~~~
E a +E E E a +Q a +Q
e|---------------7-10b12-(12)-------10b12-(12)---|
B|-------------7---------------------------------|
G|-9-9b11-(11)-----------------------------------|
D|-----------------------------------------------|
A|-----------------------------------------------|
E|-----------------------------------------------|[/tab]

[tab] | E a E E E a E a Q.
e|-----------------------------------------------|
B|-----------------------------------------------|
G|------------------7-----(7)-7-(7)--------------|
D|-------------7----7h=====9--7h=9---------------|
A|---7s====9-----9-------------------------------|
E|-----------------------------------------------|[/tab]


[tab] ~ ~~
Q E a +E a +E Q. W
e|-7-----------------------------------------|---------------------------|
B|----------10-------------------------------|---------------------------|
G|--------------9b11-(11)-7b7.5-(7)----------|---------------------------|
D|----------------------------------9--------|---------------------------|
A|-------------------------------------------|---------------------------|
E|-------------------------------------------|---------------------------|[/tab]

[tab] | Q a +Q E e E a E E E a E a E a E a Q.
e|-------------------------------------------|---------------------------|
B|-------------------------------------------|---------------------------|
G|-------------------------------------------|-------------7-(7)-7-(7)---|
D|-------------------------------------------|---------7h9-7h=9--7h=9----|
A|----5b5.5-(5)---------------------5--5-7s9-|---5-7s9-------------------|
E|-7-----------------------------7-----------|-7-------------------------|[/tab]


[tab] ~~~~
a +E E S S a +E +Q Q
e|---------------7---------------------------------|
B|-------------7---7-10b12==(12)---(12)r-----------|
G|-9b9.5-(9)---------------------------------------|
D|-------------------------------------------------|
A|-------------------------------------------------|
E|-------------------------------------------------|[/tab]

[tab] | E a E E E a E a Q.
e|-------------------------------------------------|
B|-------------------------------------------------|
G|-------------------------------7--(7)--7-(7)-----|
D|---------------7---------------7h==9---7h=9------|
A|-----------7s9--------------9--------------------|
E|-------------------------------------------------|[/tab]

[tab] ~
H E E E a +E E E e E E E a +E E
e|---------------------------------|-----7-7-----19\-------10b10.5-(10)---|
B|---------------------------------|-7------------------------------------|
G|---------------------7-9b9.5-(9)-|--------------------------------------|
D|-----------------9---------------|--------------------------------------|
A|---------------------------------|--------------------------------------|
E|---------------------------------|--------------------------------------|[/tab]

[tab] | E a E E E a E E a E E E a E E E a E a Q.
e|---------------------------------|--------------------------------------|
B|---------------------------------|--------------------------------------|
G|-----------7-(7)-7---------------|-----------7-(7)-7-(7)----------------|
D|-------7---7h=9--7---------------|-------7---7h=9--7h=9-----------------|
A|---7s9---9---------9s7--------5--|---7s9---9----------------------------|
E|---------------------------------|--------------------------------------|[/tab]


[tab] Q a +E E +E E S +S E
e|-7-----10b10.5-(10)-7---(7)-------------------|
B|----------------------------7-----------------|
G|--------------------------------9pb10r(9)p7---|
D|----------------------------------------------|
A|----------------------------------------------|
E|----------------------------------------------|[/tab]

[tab] | E a E E E a E E a E E
e|----------------------------------------------|
B|----------------------------------------------|
G|----------------------7-(7)-7-----------------|
D|-----------------7----7h=9--7-----------------|
A|---7s9--------------9---------9s7---------5---|
E|----------------------------------------------|[/tab]


[tab] ~~~
Q S +E. S +E. +Q
e|---------------------------------------|
B|---------------------------------------|
G|-------7b9-(9)------7b9-(9)-------(9)--|
D|---------------------------------------|
A|---------------------------------------|
E|---------------------------------------|[/tab]

[tab] | E a E E E a E a Q.
e|---------------------------------------|
B|---------------------------------------|
G|-----------------7-(7)------7-(7)------|
D|-------7---------7h=9-------7h=9-------|
A|---7s9---------9-----------------------|
E|---------------------------------------|[/tab]


[tab] ~~~
Q a +E E +E E S +S E Q S +E. S +E. +Q
e|-7-----10b10.5-(10)-7---(7)-----------------|-----------------------------|
B|----------------------------7---------------|-----------------------------|
G|--------------------------------9pb10r(9)p7-|-----7b9-(9)-7b9-(9)---(9)---|
D|--------------------------------------------|-----------------------------|
A|--------------------------------------------|-----------------------------|
E|--------------------------------------------|-----------------------------|[/tab]

[tab] PM|
| E a E E E a Q a Q H. a Q
e|--------------------------------------------|-----------------------------|
B|--------------------------------------------|-----------------------------|
G|------------------------------7s9-----------|-7-------------------7s=9----|
D|-----------------7----7h=9----7s9-----------|-7-------------------7s=9----|
A|---7s9--------------9-----------------------|-----------------------------|
E|--------------------------------------------|-----------------------------|[/tab]


[tab] ~
Q a +E +S S H
e|----------------------------------|
B|-------9b10==(10)r(9)p7-----------|
G|--------------------------9-------|
D|----------------------------------|
A|----------------------------------|
E|----------------------------------|[/tab]

[tab] PM|
| E a E E E a Q a Q
e|----------------------------------|
B|----------------------------------|
G|-----------------------------7s9--|
D|---------------7--------7h9--7s9--|
A|---7s9-------------9--------------|
E|----------------------------------|[/tab]

[tab] ~
Q E. +S H Q e e E E a +E E
e|-----------------------|----------------------------------|
B|---------------7-------|-----------------------------7----|
G|-----9b11-(11)---------|-------7--7-----7-9b11-(11)-------|
D|-----------------------|--------------9-------------------|
A|-----------------------|----------------------------------|
E|-----------------------|----------------------------------|[/tab]

[tab] | H. a Q Q a E E a E E S E S
e|-----------------------|----------------------------------|
B|-----------------------|----------------------------------|
G|-7----------------7s9--|-7--7-(7)-7-----------------------|
D|-7----------------7s9--|-7--7h=9--7-----------------------|
A|-----------------------|------------9s7-5-----------------|
E|-----------------------|-------------------------7s5------|[/tab]


[tab] ~~~ ~~~~ ~~ ~~
E E e E Q e E a +H a H S S E +H.
e|-7-----10--------10---|-12b14-(14)-------10h12------|-10b10.5---------------*|
B|---/12------12--------|-----------------------------|---------12-12-(12)----*|
G|----------------------|-----------------------------|-----------------------*|
D|----------------------|-----------------------------|-----------------------*|
A|----------------------|-----------------------------|-----------------------*|
E|----------------------|-----------------------------|-----------------------*|[/tab]

[tab] ~
| E E E E +H E E E E E E Q W
e|----------------------|-----------------------------|-----------------------*|
B|----------------------|-----------------------------|-----------------------*|
G|----------4-(4)-------|--------------4-------3------|-----------------------*|
D|--------4-------------|------------4---4-------2----|-----------------------*|
A|-----5----------------|--------------------------4--|--2--------------------*|
E|-3--------------------|---------2-------------------|-----------------------*|[/tab]



************************************

| x Dead note
| (n) Ghost note
| h Hammer-on
| p Pull-off
| b Bend
| pb Pre-bend
| / Slide up
| \ Slide down
| s Slap

************************************