Sweet Sixteen

B.b. King

Album: His Best - The Electric B.B. King
Genero: Pop

Tablatura (Ver letra)

#----------------------------------PLEASE NOTE--------------------------------#
#This file is the author's own work and represents their interpretation of the#
#song. You may only use this file for private study, scholarship, or research.#
#-----------------------------------------------------------------------------#

Date: Wed, 15 Apr 1998 14:30:51 +0000
From: Andy Faitel <afaitel@online.emich.edu>
Subject: k/b.b. king/sweet sixteen

B.B. King
Sweet Sixteen

[tab]<Intro>
----------------------------------------------------------------------
--------15---17b19--15--------13--------------------------------------
-14-16---------------------------14--12-------------------------------
----------------------------------------15--12------12----------------
------------------------------------------------15--------------------
----------------------------------------------------------------------[/tab]


[tab]------------------------------------------------22--------------------
---15-17----15----------15-15----17b19---------------17b19-17-15------
16-------16----------16------------------------------------------16---
----------------------------------------------------------------------
----------------------------------------------------------------------
----------------------------------------------------------------------[/tab]


[tab]--------------------------15--15--15--15-17---------------------------
15---------15--15--17b18--------------------17b18--15----17b18-----15-
----------------------------------------------------------------16----
----------------------------------------------------------------------
----------------------------------------------------------------------
----------------------------------------------------------------------[/tab]


[tab]---------------------------------17b19--17---------15-----------------
17--15---15h17p15--------15-17-15---------17b19------19p15--15--------
--16-------------16----16---------------------------------16----------
----------------------------------------------------------------------
----------------------------------------------------------------------
----------------------------------------------------------------------[/tab]



[tab]----------------------------------------------------------------------
---17b(19)b17b(19)------15------12--------13--------------------------
-16---------------------------------------14--------14----------------
-------------------------------------15------15--------15p12--12----14
-----------------------------------------------------------------16---
----------------------------------------------------------------------[/tab]


[tab]-----------13---15--15b17---15p13-----10------------------------------
15---15--------------------------15------13p10--------10-----------10-
----------------------------------------------12---------10h12p10-----
----------------------------------------------------------------------
----------------------------------------------------------------------
----------------------------------------------------------------------[/tab]


[tab]-----------17b20-----r17-------------------10-------------------------
--15-17-15--------------17b18-15---17b19--------13-10--10-------------
16---------------------------------------------------12--10------9----
-----------------------------------------------------------12-12---12-
----------------------------------------------------------------------
----------------------------------------------------------------------[/tab]


[tab]When I first met you ba-by...
------------------------------10--10----------------------------------
---10-----10----------------10----------------------------------------
r11-----12--11------------10------------------------------------------
--------------12--------12--------------------------------------------
----------------12----------------------------------------------------
----------------------------------------------------------------------[/tab]

You can fill the rest of the song with little B.B. King style
blues licks or E-Mail me at afaitel@online.emich.edu if you need help
or want the lyrics or something

Andy Faitel