Something You Got

B.b. King

Album: Blues Summit
Genero: Pop

Tablatura (Ver letra)

Chords progression used:
F - Bb

Bridge:
Eb-D-C#-C

[tab]E-----6-b8-6--8------------------------------------------/6-----------|
B-6-8----------------b8d8-p6-8-6-8------b8d8-p6-8-6---------8---------|
G-------------------------------------------------------------6-------|
D---------------------------------------------------------------8-----|
A---------------------------------------------------------------------|
E---------------------------------------------------------------------|[/tab]

[tab]E-----11-13-------------b8-8p6--------b8-8p6---6-----b8d-p6---6-8---6-|
B-b13-------b13-11-------------8~------------8--------------8-----8---|
G---------------------------------------------------------------------|
D---------------------------------------------------------------------|
A---------------------------------------------------------------------|
E---------------------------------------------------------------------|[/tab]

[tab]E-b13--------------b8d8p6---b8-6-6/-----b8d8p6---6-8-6/---------------|
B-----14p13p11~-----------8--------------------8----------------------|
G---------------------------------------------------------------------|
D---------------------------------------------------------------------|
A---------------------------------------------------------------------|
E---------------------------------------------------------------------|[/tab]

SAX-SOLO

[tab]E-b9-11-b11-11-b9-b9-------9-10/-----b13-13-11-13------------------13-13-13-|
B--------------------11-11-----------------------b13d13p11----13---13-13-13-|
G----------------------------------------------------------12---------------|
D---------------------------------------------------------------------------|
A---------------------------------------------------------------------------|
E---------------------------------------------------------------------------|[/tab]


[tab]E-------------------------------------13---------------------------|
B-b13-b13-11-11-13-13-------11----11--13--11-11--b14-b13/---8-8-8/-|
G------------------------12----12----------------------------------|
D------------------------------------------------------------------|
A------------------------------------------------------------------|
E------------------------------------------------------------------|[/tab]