Sitting On Top Of The World

B.b. King

Album: One Kind Favor
Genero: Pop

Tablatura (Ver letra)

Sitting on top of the world - B.B. King

[tab][Intro/solo]
e|-----------------9~--------------------------------------------|
B|----7---10/11-12-----------------------------------------------|
G|---------------------------------------------------------------|
D|---------------------------------------------------------------|
A|---------------------------------------------------------------|
E|---------------------------------------------------------------|[/tab]

[tab]e|-------9-8-7---------------------------------------------------|
B|----7--------10b12---------------------------------------------|
G|---------------------------------------------------------------|
D|---------------------------------------------------------------|
A|---------------------------------------------------------------|
E|---------------------------------------------------------------|[/tab]

[tab]e|----9b11r9--9-9-7~---------------------------------------------|
B|---------------------------------------------------------------|
G|---------------------------------------------------------------|
D|---------------------------------------------------------------|
A|---------------------------------------------------------------|
E|---------------------------------------------------------------|[/tab]

[tab]e|---------------------------------------------------------------|
B|----9b11r9p7-7~------------------------------------------------|
G|---------------------------------------------------------------|
D|---------------------------------------------------------------|
A|---------------------------------------------------------------|
E|---------------------------------------------------------------|[/tab]

[tab]e|---------------------------------------------------------------|
B|------7---9b11-------------------------------------------------|
G|----8---8------------------------------------------------------|
D|---------------------------------------------------------------|
A|---------------------------------------------------------------|
E|---------------------------------------------------------------|[/tab]

[tab]e|---------------------------------------------------------------|
B|----9b10r9--7-9------------------------------------------------|
G|---------------------------------------------------------------|
D|---------------------------------------------------------------|
A|---------------------------------------------------------------|
E|---------------------------------------------------------------|[/tab]

[tab]e|---------------------------------------------------------------|
B|-------7---7b9-7b9--7-6/7---6//7-------------------------------|
G|----/8---8----------------8------------------------------------|
D|---------------------------------------------------------------|
A|---------------------------------------------------------------|
E|---------------------------------------------------------------|[/tab]



************************************

| ~ Vibrato
| / Slide up
| b Bend
| r Release
| p Pull-off

************************************