Shes Dynamite

B.b. King

Genero: Pop

Tablatura

SHE'S DYNAMITE

As recorded by B.B. King
(From the 1951 Album KING OF THE BLUES)

Words and Music by Hudson 'Tampa Red' Whittacker

Transcribed by Slowhand


Gtr I (E A D G B E) - 'Calvin Newborn - Electric Guitar'


Intro
Q=155(8=s8)
N.C.
4/4
Gtr I
W W q E e E E E E E E Q H
[tab]|----------|----------|-8-----------------|-------------|
|----------|----------|----11-10---8----8-|-------------|
|----------|----------|--------------10---|-8-9---------|
|----------|----------|-------------------|-------------|
|----------|----------|-------------------|-------------|
|----------|----------|-------------------|-------------|[/tab]


[tab] E E E E E E Q E E Q Q E E E E E E E E E E E E Q H
|------------------|-11-8---------11-|---8---8-------------|-------------|
|---11-8-----------|-10-----------10-|---------11-8----(8)-|---8---------|
|--------8---------|-----------------|--------------10-----|-8-9---------|
|----------10-8----|-----------------|---------------------|-------------|
|------------------|-----------------|---------------------|-------------|
|------------------|-----------------|---------------------|-------------|[/tab]


[tab] E E E E E E E E +E E Q E E Q
|---8----------------|-----10----10-------|
|-------11-10-8------|--------------10----|
|---------------10-8-|-(8)----------------|
|--------------------|--------------------|
|--------------------|--------------------|
|--------------------|--------------------|[/tab]


[tab] E Q E E E E E a E E E E E E E E
|---11b11.5--8-----------|-----------------------|
|--------------11-8----8-|-----------------------|
|-------------------10---|-8h9---------8---10----|
|------------------------|-----10---10-----------|
|------------------------|-----------------------|
|------------------------|-----------------------|[/tab]


[tab] 1st - 5th Verses
$
C7
E E Q E E Q a Q Q a Q Q
|-----------------||--11s12------11s12------|
|-----------------||o-12s13------12s13------|
|-9---------10----||---------12---------12--|
|---10-------9----||------------------------|
|-----------------||o-----------------------|
|-----------------||------------------------|[/tab]


[tab] E a Q E a E E Q a Q Q a Q Q
|---11s12-----11s12--------|-11s12------11s12------|
|---12s13-----12s13--------|-12s13------12s13------|
|----------14-------14-12--|--------12---------12--|
|--------------------------|-----------------------|
|--------------------------|-----------------------|
|--------------------------|-----------------------|[/tab]


[tab] F7
E a Q E a E E Q Q Q E E E E
|---11s12-----11s12--------|-8\-------8---/11-|
|---12s13-----12s13--------|-8\-------8---/10-|
|----------14-------14-12--|-8\-------8-------|
|--------------------------|------------------|
|--------------------------|------------------|
|--------------------------|------------------|[/tab]


[tab] C7
+E E E E a E E Q a Q Q E E E E
|-(11)-11-8-8-10s11-11-8--|-7s=8\--------8---/12-|
|-(10)-10-8-8--9s10-10-8--|-9s10\-------10---/13-|
|-------------------------|-8s=9\--------9-------|
|-------------------------|----------------------|
|-------------------------|----------------------|
|-------------------------|----------------------|[/tab]


[tab] G7
+E E E E a E E Q Q Q Q E E
|-(12)-12-------11s12-12----|-11----------8-|
|-(13)-13-------12s13-13----|-10----------8-|
|---------14-12-------------|-------------8-|
|---------------------------|---------------|
|---------------------------|---------------|
|---------------------------|---------------|[/tab]


[tab] To Coda
C7
+Q Q Q E a E +Q E E E E E E
|-(8)----------11s12--|-(12)-------------8--|
|-(8)----------12s13--|-(13)--8-----8-10----|
|-(8)-----------------|---------8-9---------|
|---------------------|---------------------|
|---------------------|---------------------|
|---------------------|---------------------|[/tab]


[tab] 1.,2.,D.S. 3.
E a E E E a E E Q 3x E a Q E a E E Q
|---11s12-------11s12-12------||---11s12-----11s12--------||
|---12s13-------12s13-13-----o||---12s13-----12s13--------||
|---------14-12----------12---||----------14-------14-12--||
|-----------------------------||--------------------------||
|----------------------------o||--------------------------||
|-----------------------------||--------------------------||[/tab]


[tab] Saxophone Solo
N.C.
Q E E Q E E Q E a E E E E E
|--------------------|-----------------------|
|--------------------|------11s10---10---10--|
|--9---9--9--9-----9-|------11s10---10---10--|
|-10--10-10-10----10-|-----------------------|
|--------------------|-----------------------|
|--------------------|-----------------------|[/tab]


[tab] E E Q Q E E H E a E E E E E Q Q E E Q E E Q E E
|----------------|------------------|-------------11-|------11-----------|
|-8-8---------11-|------10---8------|-8-8---------10-|------10----10-10--|
|-8-9----------9-|------10-8h9------|-8-8------------|------------10-10--|
|----------------|---------------10-|----------------|-------------------|
|----------------|------------------|----------------|-------------------|
|----------------|------------------|----------------|-------------------|[/tab]


[tab] E E Q H E E E E E E Q E E Q Q E E E E E E E E E E
|-------------|---------------------|---------------10-|---11---11---10---10-|
|-8-8---------|---11p10-10p(8)------|-10-10---------10-|---11---11---10---10-|
|-8-9---------|----------------9----|-10-10------------|---------------------|
|-------------|---------------------|------------------|---------------------|
|-------------|---------------------|------------------|---------------------|
|-------------|---------------------|------------------|---------------------|[/tab]


[tab] Piano Solo
N.C.
E E Q Q E E H E E Q Q E E Q E E Q E a E E E E E
|-----------------|--------------||--------------------|-----------------------|
|-8-8----10--10-8-|--------10----||--------------------|------11s10---10---10--|
|-8-9----10--10-9-|--------10----||--9---9--9--9-----9-|------11s10---10---10--|
|-----------------|--------------||-10--10-10-10----10-|-----------------------|
|-----------------|--------------||--------------------|-----------------------|
|-----------------|--------------||--------------------|-----------------------|[/tab]


[tab] E E Q Q E E H E a E E E E E Q Q E E Q E E Q E E
|----------------|------------------|-------------11-|------11-----------|
|-8-8---------11-|------10---8------|-8-8---------10-|------10----10-10--|
|-8-9----------9-|------10-8h9------|-8-8------------|------------10-10--|
|----------------|---------------10-|----------------|-------------------|
|----------------|------------------|----------------|-------------------|
|----------------|------------------|----------------|-------------------|[/tab]


[tab] E E Q H E E E E E E Q E E Q Q E E E E E E E E E E
|-------------|---------------------|---------------10-|---11---11---10---10-|
|-8-8---------|---11p10-10p(8)------|-10-10---------10-|---11---11---10---10-|
|-8-9---------|----------------9----|-10-10------------|---------------------|
|-------------|---------------------|------------------|---------------------|
|-------------|---------------------|------------------|---------------------|
|-------------|---------------------|------------------|---------------------|[/tab]


[tab] Outro
D.S. al Coda &
N.C. B6C6
E E Q Q E E H E E Q E E E E E E E E Q E E +H
|-----------------|--------------||-(12)-12---------------|----7--8--(8)----*|
|-8-8----10--10-8-|--------10----||-(13)-13---11-10-8-----|-8--9-10-(10)----*|
|-8-9----10--10-9-|--------10----||-------------------8-9-|----8--9--(9)----*|
|-----------------|--------------||-----------------------|----9-10-(10)----*|
|-----------------|--------------||-----------------------|-----------------*|
|-----------------|--------------||-----------------------|-----------------*|[/tab]


Duration Legend
---------------
W - whole; H - half; Q - quarter; E - 8th; S - 16th; T - 32nd; X - 64th; a - acciaccatura
+ - note tied to previous; . - note dotted; .. - note double dotted
Uncapitalized letters represent notes that are staccato (1/2 duration)
Irregular groupings are notated above the duration line
Duration letters will always appear directly above the note/fret number it represents the
duration for. Duration letters with no fret number below them represent rests. Multi-
bar rests are notated in the form Wxn, where n is the number of bars to rest for. Low
melody durations appear below the staff

Tablature Legend
----------------
h - hammer-on
p - pull-off
b - bend
pb - pre-bend
r - bend release (if no number after the r, then release immediately)
/\ - slide into or out of (from/to "nowhere")
s - legato slide
S - shift slide
- natural harmonic
[n] - artificial harmonic
n(n) - tapped harmonic
~ - vibrato
tr - trill
T - tap
TP - trem. picking
PM - palm muting
/ - tremolo bar dip; n = amount to dip
- tremolo bar down
n/ - tremolo bar up
/n\ - tremolo bar inverted dip
= - hold bend; also acts as connecting device for hammers/pulls
<> - volume swell (louder/softer)
x - on rhythm slash represents muted slash
o - on rhythm slash represents single note slash

Misc Legend
-----------
| - bar
|| - double bar
||o - repeat start
o|| - repeat end
*| - double bar (ending)
: - bar (freetime)
$ - Segno
& - Coda
Tempo markers - = BPM(8/16=s8/s16), where s8 = swing 8ths, s16 = swing 16ths