Same Old Story Same Old Song

B.b. King

Genero: Pop

Tablatura

BB King - Same old story, same old song
https://www.youtube.com/watch?v=PZ7boBgAZVM

Tuning: Standard (EADGBe)

Intro:

[tab]e -13-10-10------------------|
B ------------10-------------|
G ---------------12p10-------|
D ---------------------12-12-|
A ---------------------------|
E ---------------------------|[/tab]

[tab]e -13-10-10------------------|
B ------------13-10x-10------|
G ---------------------------|
D ---------------------------|
A ---------------------------|
E ---------------------------|[/tab]

[tab]e -13-10----------------------------|
B ------------10--------------------|
G ---------------12p10--------------|
D ---------------------12-12---(12)-|
A ----------------------------------|
E ----------------------------------|[/tab]

[tab]e -13-10----------------------------|
B -------10-------------------------|
G ----------12p10-------10----------|
D ----------------12-------12p10----|
A -------------------------------12-|
E ----------------------------------|[/tab]

"Same old stooo.."

[tab]e -----------------|
B ---10------------|
G ------12p10-12---|
D -----------------|
A -----------------|
E -----------------|[/tab]

"Same old song..."

[tab]e -------------------|
B -------------------|
G ---12-12p10--------|
D -------------12-12-|
A -------------------|
E -------------------|[/tab]