Rock Me Baby

B.b. King

Album: Introducing B.B. King
Genero: Rock

Tablatura (Ver letra)

Sorry the solos not included but its still great fun to play along with.
I Think its a 12 bar blues in C
Any questions or you want what i have for the solo feal fre to e mail me.
if you want more B.B. Tabs Rate this and let me know wich ones i will get started on
right away.


[tab]C7
e|------------------------|
B|------------------------|
G|------------------------|
D|------------------------|
A|------------------------|
E|------------------------|[/tab]


[tab]C7 C7 C7
e|--------8---------------|------8-------------|------8----------8---|
B|-----------11~~~~-------|----------11~~~~~---|---------11~~~~------|
G|------------------------|--------------------|---------------------|
D|------------------------|--------------------|---------------------|
A|--10-10-----------------|--10----------------|--10-----------------|
E|------------------------|--------------------|---------------------|[/tab]

[tab]F7 F7 C7
e|--------13--------------|--------13--------------|-------8--------------8-|
B|-------------16~~~~~~---|-------------16~~~~~~---|----------11~~~~~~------|
G|------------------------|------------------------|------------------------|
D|------------------------|------------------------|------------------------|
A|---15-------------------|---15-------------------|--10--------------------|
E|------------------------|------------------------|------------------------|[/tab]

[tab]C7 G7 F7
e|-------8-------------8--|------15------------15--|------13---------------|
B|-----------11~~~~~~-----|----------18~~~~~~------|-----------16~~~~~~----|
G|------------------------|------------------------|-----------------------|
D|------------------------|------------------------|-----------------------|
A|--10--------------------|--17--------------------|--15-------------------|
E|------------------------|------------------------|-----------------------|[/tab]

[tab]C7 G7
e|-------8-------------8--|-------8-------------|
B|------------11~~~~~-----|----------11~~~~~~---|
G|------------------------|---------------------|
D|------------------------|---------------------|
A|--10--------------------|---------------------|
E|------------------------|--10-----------------|[/tab]

End

Verse: 12 bar Form
1.)Rock me baby, rock me all night long
Rock me baby, honey, rock me all night long
I want you to rock me baby, like my back ain't got no bone.

2.)Roll me baby, like you roll a wagon wheel
want you to roll me baby, like you roll a wagon wheel
Want you to roll me baby, you don't know how it makes me feel.

3.)Rock me baby, honey, rock me slow Yeah,
rock me pretty baby, baby rock me slow
Want you to rock me baby, till I want no more.



************************************

| ~ Vibrato

************************************