No Good

B.b. King

Genero: Pop

Tablatura

This is the intro of the version from of the "Completely Well" album (1969).

[tab] Band in
D7 G7
e|-------10-|-12b------------------------|---------------------------------|
B|-10-12----|-----10-10-10-------15------|-15------------------------------|
G|----------|----------------14b----14pb-|----14---10/9/7-7-----7---7-9-7--|
D|----------|----------------------------|------------------8h9---9--------|
A|----------|----------------------------|---------------------------------|
E|----------|----------------------------|---------------------------------|[/tab]

[tab] D7
e|------------------------10-------|-10------------------------14----12-|
B|-------10-10-10---10h12----12-10-|------12----------------------------|
G|-10/11---------------------------|---------10-9/7-7---------/14----12-|
D|---------------------------------|------------------------------------|
A|---------------------------------|------------------------------------|
E|---------------------------------|------------------------------------|[/tab]

[tab] G7
e|-10---------10------------------------|-------10-10-----------10-10-----10-|
B|------10h12----12-10------------------|-10/12-------12--11/12--------12----|
G|---------------------12-10-9----------|------------------------------11----|
D|-----------------------------12-12-9\-|------------------------------------|
A|--------------------------------------|------------------------------------|
E|--------------------------------------|------------------------------------|[/tab]

[tab] D7 A7
e|-12/14---10p7------------------10-------|---------------------------|----12b-10------------------10-|
B|---------------------10-10--12----------|-8/10--9/10------------12b-|-10--------12---------10/12----|
G|--------------7-9/11--------------11----|-9/11-10/11----10/11-------|--------------11-9-9-----------|
D|-------------------------------------12-|------------12-------------|-------------------------------|
A|----------------------------------------|---------------------------|-------------------------------|
E|----------------------------------------|---------------------------|-------------------------------|[/tab]

[tab] G7 D7 G7 D7 A7
e|-10------------10---------17-|-------------------|----------------------------|
B|----12---10/12------17-15----|-17b---15-15---17b-|-15-13\10----10-------------|
G|-----------------------------|-------------------|----------12------12-10b----|
D|-----------------------------|-------------------|----------------------------|
A|-----------------------------|-------------------|-------------------------12-|
E|-----------------------------|-------------------|----------------------------|[/tab]

************************************

| b Bend
| / Slide up
| \ Slide away
| h Hammer-on
| p Pull-off

************************************