Mean Old World

B.b. King

Genero:

Tablatura

Band Name : BB King
Song Name : Mean old world
Tabbed By : Terry Sims (Masterofdarknes)
Email : Floyd_Fan89@teenspot.com


Solo

[tab]E||--4------------------------|--------------------4~---4--|
B||---------------------------|----------------------------|
G||---------------------------|----------------------------|
D||---------------------------|----------------------------|
A||---------------------------|----------------------------|
E||---------------------------|----------------------------|[/tab]

[tab]--6b---------------11b-------|--11--10--9--------------------------9b-|
-----------------------------|-------------12--9--12--9------11b------|
-----------------------------|----------------------------------------|
-----------------------------|----------------------------------------|
-----------------------------|----------------------------------------|
-----------------------------|----------------------------------------|[/tab]

[tab]--------------------------|------------------11b-----14--|
--------------------------|------------------------------|
--------------------------|------------------------------|
--------------------------|------------------------------|
--------------------------|------------------------------|
--------------------------|------------------------------|[/tab]

[tab]--14--11--9b-9-------------------------|----------------------------|
----------------11r---9----9~-----9----|----11b---------------------|
------------------------10-------------|----------------------------|
---------------------------------------|----------------------------|
---------------------------------------|----------------------------|
---------------------------------------|----------------------------|[/tab]

[tab]------------9r--------------|------------------6b-9--9b---|
-----------------9~---------|-----------------------------|
----------------------------|-----------------------------|
----------------------------|-----------------------------|
----------------------------|-----------------------------|
----------------------------|-----------------------------|[/tab]

[tab]--7b-------------------------|-----------------------------|
---------x----9~-------------|----------------------9~-----|
-----------------------------|------------------10---------|
-----------------------------|-----------------------------|
-----------------------------|-----------------------------|
-----------------------------|-----------------------------|[/tab]

[tab]----------------------------|----11b---11-9---------------------|
--11b-----------------------|---------------12----9~-----9~-----|
----------------------------|-----------------------------------|
----------------------------|-----------------------------------|
----------------------------|-----------------------------------|
----------------------------|-----------------------------------|[/tab]

[tab]----------------------------|------16~---------------------------------|
--11b-----------------------|----------------14b-14p12-14---12p9----9~-|
----------------------------|------------------------------------10----|
----------------------------|------------------------------------------|
----------------------------|------------------------------------------|
----------------------------|------------------------------------------|[/tab]

[tab]----------------------------|------11b-----11/-14-11-------------------|
----11b---------------------|------------------------14-12~--------14--|
----------------------------|--------------------------------13--------|
----------------------------|------------------------------------------|
----------------------------|------------------------------------------|
----------------------------|------------------------------------------|[/tab]

[tab]----------------------------|----------------------------9--9b---|
--12b-----------------------|----12b---11b9-9~-------11b---------|
----------------------------|------------------------------------|
----------------------------|------------------------------------|
----------------------------|------------------------------------|
----------------------------|------------------------------------|[/tab]

[tab]----------------------9r----|---------------------------|
-------------------------9--|--9~-----------------------|
----------------------------|---------------------------|
----------------------------|---------------------------|
----------------------------|---------------------------|
----------------------------|---------------------------|[/tab]

[tab]------11b-----11--11b---11-9----------|--4----------------------------------|
-----------------------------12b---9\-|----7p4---4~-------------------------|
--------------------------------------|--------5----6p-4~-------------------|
--------------------------------------|---------------------6p4-------------|
--------------------------------------|-------------------------6-4---2-----|
--------------------------------------|-------------------------------------|[/tab]

[tab]----------------||
----------------||
----------------||
-------4~-------||
----------------||
--4-------------||[/tab]