Lucille

B.b. King

Album: Lucille
Genero: Rock

Tablatura (Ver letra)

Here's the intro to one of the best songs by BB King. 
My thanks go to BB John.

Standard tuning.

[tab]e|---------11-13b15------|-----------------------------------------------------|
B|---11-13-----------11~-|-14b16-----------------------------------------------|
G|-----------------------|--------13b15--13-11-13--13b15r13-11b13r11-----11b12-|
D|-----------------------|--------------------------------------------13-------|
A|-----------------------|-----------------------------------------------------|
E|-----------------------|-----------------------------------------------------|[/tab]


[tab]e|---11-----------------------------------|--------------------------------|
B|-11--11v---13b14--11h13-11---11---------|--------------------------------|
G|---------------------------13----11-12v-|-15b17-13b15--------------------|
D|----------------------------------------|--------------16b17-13-13v------|
A|----------------------------------------|---------------------------15---|
E|----------------------------------------|--------------------------------|[/tab]


[tab]e|---------------------------------------------------------|
B|-------------14-11---------------------------------------|
G|----11-13-11-------13b15-13-11----11b13r11---------11b12-|
D|-13----------------------------13----------13-13v--------|
A|---------------------------------------------------------|
E|---------------------------------------------------------|[/tab]


[tab]e|--------------------------11----11-------14s15------|
B|-14-11----11-----------11----11-----16v----------16-|
G|-------13----11b12r11-------------------------------|
D|----------------------------------------------------|
A|----------------------------------------------------|
E|----------------------------------------------------|[/tab]


[tab]e|-16s15---------(14)-----10s11---------------------------|
B|-------16-16v------(14)-------14----11------------------|
G|---------------------------------13----11-13v-11--------|
D|-------------------------------------------------13-13v-|
A|--------------------------------------------------------|
E|--------------------------------------------------------|[/tab]



************************************

| (n) Ghost note
| h Hammer-on
| r Release
| b Bend
| ~ Vibrato
| s Slide

************************************