Key To The Highway

B.b. King

Album: Riding with the King
Genero: Pop

Tablatura (Ver letra)

Song: Key to the Highway (Live Performance)
Artist: B.B King
Tabbed by: MrkMcr (arkmmacaree@gmail.com)
Source: http://www.youtube.com/watch?v=wNId8clBdbI


INTRO

[tab]E------------------------------------------11^(13)--11--11--9v--------------|
B---------9------11^(13)----11^(13)--11-------------------------------------|
G----/10-----10-------------------------------------------------------------|
D---------------------------------------------------------------------------|
A---------------------------------------------------------------------------|
E---------------------------------------------------------------------------|[/tab]

[tab]E------------------------------------------11^(13)--------------------------|
B----11^(13)--11-9-----------9--11^(13)-------------11^(13)^(11)p9----------|
G------------------10----10-----------------------------------------10------|
D---------------------------------------------------------------------------|
A---------------------------------------------------------------------------|
E---------------------------------------------------------------------------|[/tab]

[tab]E-------------9-9-9^(10)^(9)------------------------------------------------|
B----11^(13)------------------9-11^(13)-11-11-9vv----11^(13)----------------|
G---------------------------------------------------------------------------|
D---------------------------------------------------------------------------|
A---------------------------------------------------------------------------|
E---------------------------------------------------------------------------|[/tab]


SOLO 1

[tab]E----------------------------------11^(13)--11-9v---------------------------|
B----11^(13)^(11)^(13)----11hbrv---------------------11^(13)--11--9--11-----|
G----------------------------*-------------------------------------------10-|
D---------------------------------------------------------------------------|
A---------------------------------------------------------------------------|
E---------------------------------------------------------------------------|[/tab]

[tab]E-------------9—9^(11)^(9)--------------------------------------------------|
B----11^(13)----------------9--11^(13)--------------------------------------|
G---------------------------------------------------------------------------|
D---------------------------------------------------------------------------|
A---------------------------------------------------------------------------|
E---------------------------------------------------------------------------|[/tab]

[tab]E-------------9—9^(11)^(9)--------------------------------------------------|
B----11^(13)----------------9--11^(13)^(11)p9------9v-----9—11^(13)---------|
G----------------------------------------------10---------------------------|
D---------------------------------------------------------------------------|
A---------------------------------------------------------------------------|
E---------------------------------------------------------------------------|[/tab]



SOLO 2


[tab]E------------------------------------------11^(13)--11--9-------------------|
B----11^(13)^(11)^(13)----11^(12)^(11)v-------------------------------------|
G---------------------------------------------------------------------------|
D---------------------------------------------------------------------------|
A---------------------------------------------------------------------------|
E---------------------------------------------------------------------------|[/tab]

[tab]E-----------------------------------9--9^(11)-------------------------------|
B----11^(13)—11--9v-h10----11^(13)------------9---11^(13)-------------------|
G---------------------------------------------------------------------------|
D---------------------------------------------------------------------------|
A---------------------------------------------------------------------------|
E---------------------------------------------------------------------------|[/tab]

[tab]E-------------9--9^(11)^(9)-------------------------------------------------|
B----11^(13)-----------------9--11^(13)--11--9vv----9v--9--11^(13)----------|
G---------------------------------------------------------------------------|
D---------------------------------------------------------------------------|
A---------------------------------------------------------------------------|
E---------------------------------------------------------------------------|[/tab]



[tab]E-------------4-------------------------------------------------------------|
B----4----------------------------------------------------------------------|
G-------6--5----------------------------------------------------------------|
D---------------------------------------------------------------------------|
A---------------------------------------------------------------------------|
E---------------------------------------------------------------------------|[/tab]


KEY

X^(Y) – Bend from note X to note Y
YpX - Pull off
XhY - Hammer on
Xv - Vibrato
/X - Slide into note X from below (lower note)

*Xhbrv – Half bend, release and add vibrato*