Keep It Coming

B.b. King

Album: Deuces Wild
Genero: Pop

Tablatura (Ver letra)

[tab]E-13^-11--------------------------|
B--------13~----------------------|
G---------------------------------|
D---------------------------------|
A---------------------------------|
E---------------------------------|[/tab]

[tab]E--------------------------------|
B-11-----------------------------|
G----12-10-----------------------|
D----------13---10---------------|
A------------------13-10---------|
E------------------------13------|[/tab]

[tab]E--------------------------------|
B-11-11--------------------------|
G--------------------------------|
D-------10-13^(1/4)--10-12----10-|
A--------------------------12----|
E--------------------------------|[/tab]

[tab]E-18^---------------------------------|
B-----16-----18^-16------15-----------|
G--------17---------17------17--------|
D-------------------------------------|
A-------------------------------------|
E-------------------------------------|[/tab]

[tab]E---------------------------|
B---------------------------|
G-15------------------------|
D----17-15------------------|
A----------18^(1/2)--15-----|
E-----------------------18--|[/tab]

[tab]E--------------------------------|
B--------------------------------|
G----15-17-15h17-15--------------|
D-17----------------15^(1-2)v----|
A-----------------------------18-|
E--------------------------------|[/tab]

[tab]E-15^(1/4)-15^(1/4)------------|
B-15^(1/2)-15^(1/2)-13---------|
G----------------------15------|
D------------------------------|
A------------------------------|
E------------------------------|[/tab]

[tab]E------------------------------|
B-13---------------------------|
G----15-12---------------------|
D----------15^(1/2)V-13--------|
A-----------------------15-----|
E------------------------------|[/tab]

[tab]E-18^-------------------------------|
B-----13----------------------------|
G--------15-12----------------------|
D--------------15^(1/2)v-13---------|
A---------------------------15------|
E-----------------------------------|[/tab]

[tab]E-13^-11---------13^-13^-13-11-10----|
B--------13-----------------------13-|
G------------------------------------|
D------------------------------------|
A------------------------------------|
E------------------------------------|[/tab]

[tab]E-------------------11^-11-8-----------|
B-11h13-11h13-11h13----------11-8------|
G---------------------------------10-8-|
D--------------------------------------|
A--------------------------------------|
E--------------------------------------|[/tab]

Organ Part:C Eb F G Eb F Eb repeated