In The Midnight Hour

B.b. King

Album: Introducing B.B. King
Genero: R-b

Tablatura (Ver letra)

B.B. King
In the Midnight Hour
Tuning: Standard
Transcribed by Soch Hean

[tab]Intro:
|----------------------------------11------------------------------|
|-14b16---14-11~---13b15rp11----------14-11~-\------13b15rp11-13---|
|----------------------------12------------------------------------|
|------------------------------------------------------------------|
|------------------------------------------------------------------|
|------------------------------------------------------------------|[/tab]

[tab]|------------------------------|
|-11~-----11~---11~------11\---|
|-----12------------12---------|
|------------------------------|
|------------------------------|
|------------------------------|[/tab]

[tab]Verse:
|------------------------------------------------------------------|
|-11~--------------13b15rp11---------11~------------13b15r-11~-----|
|-----12---------------------------------12------------------------|
|------------------------------------------------------------------|
|------------------------------------------------------------------|
|------------------------------------------------------------------|[/tab]

[tab]Bridge/Chorus:
|-14b16--------------------------------------------|
|---------13b15rp11---------------13b15rp11--------|
|-------------------12-----------------------------|
|--------------------------------------------------|
|--------------------------------------------------|
|--------------------------------------------------|[/tab]

[tab]|---------------------------------------------|
|----11--11-13~-11~-------13b15rp11-13-11~----|
|-12------------------------------------------|
|---------------------------------------------|
|---------------------------------------------|
|---------------------------------------------|[/tab]

[tab]|----------------------------------------16--------------|
|-------------------------------------------16b18rp14----|
|-----------------------------------------------------15-|
|-5h6--5h6--5h6--5h6--3--3-3-3-3-3-3-3-------------------|
|--------------------------------------------------------|
|--------------------------------------------------------|[/tab]

[tab]Verse: (0:52)
|-----------------------------------------------------14b16-----------|
|-11~--------------13b15-13-11~-13-------13b15--------------13--11~---|
|----12---------------------------------------------------------------|
|---------------------------------------------------------------------|
|---------------------------------------------------------------------|
|---------------------------------------------------------------------|[/tab]

[tab]Bridge/Chorus: (1:10)
|--------13b15-------------------------13b15-----------------------|
|-13b15---------13b15rp11---------------------13b15rp11------------|
|-------------------------12~----------------------------12--------|
|------------------------------------------------------------------|
|------------------------------------------------------------------|
|------------------------------------------------------------------|[/tab]

[tab]|------------------------------------------------------------------|
|-----11-13--11~-13-----------16b18--16-14-------------------------|
|-12---------------------------------------15-15~-17b19------------|
|------------------------------------------------------------------|
|------------------------------------------------------------------|
|------------------------------------------------------------------|[/tab]

[tab]Guitar Solo: (1:30)
|-18~~----------------------------------------11-----------11------|
|------18b20---15---------------11-13---13b15--------13b15---------|
|-----------------15-15~-------------------------------------------|
|------------------------------------------------------------------|
|------------------------------------------------------------------|
|------------------------------------------------------------------|[/tab]

[tab]|-------11-------11-13----------------------------------11-11b13==-----|
|-13b15----13b15-------13b15-11~---11-13--13b15---13b15-----------11~--|
|-------------------------------12-------------------------------------|
|----------------------------------------------------------------------|
|----------------------------------------------------------------------|
|----------------------------------------------------------------------|[/tab]

[tab]|-14b16-14b16--16--16--16-----------------------------14b16----13--|
|-------------------------13b16--13-11--11-11~---------------------|
|---------------------------------------------12-12----------------|
|------------------------------------------------------------------|
|------------------------------------------------------------------|
|------------------------------------------------------------------|[/tab]

[tab]|-11~------------------------11b13--13--------------14b16--13~-----|
|-----13b15r-11-11~--13b15------------------11~--------------------|
|----------------------------------------12-----12-----------------|
|------------------------------------------------------------------|
|------------------------------------------------------------------|
|------------------------------------------------------------------|[/tab]

[tab]|-14b16=--13-11----------------------------------------------------|
|---------------14-13-13-13-11~--13-13b15r--11---------------------|
|----------------------------------------------12------------------|
|------------------------------------------------------------------|
|------------------------------------------------------------------|
|------------------------------------------------------------------|[/tab]

[tab]|-18~--15b15.5---13~--18\----11-11-11-10---------------------13b15-|
|-----------------------------------------13--11-13--13b15---------|
|------------------------------------------------------------------|
|------------------------------------------------------------------|
|------------------------------------------------------------------|
|------------------------------------------------------------------|[/tab]

[tab]|-13--11-11---------------------------------------------------------|
|--------------13b15rp11-13---11~-------13b15-13-11----13b15rp11-11-|
|------------x---------------------12-------------------------------|
|-----------x-------------------------------------------------------|
|----------x--------------------------------------------------------|
|-------------------------------------------------------------------|[/tab]

[tab]|-----------------------------------------------------13b15--------|
|-11-----11~-------------------------------------------------------|
|----x-------------------------------------------------------------|
|----x---------5h6--5h6--5h6--5h6--3--3-3-3-3-3-3-3----------------|
|------------------------------------------------------------------|
|------------------------------------------------------------------|[/tab]

[tab]Chorus: (2:26)
|------------------------------------------------------------------|
|-13b15rp11-11-----------11~~-------13b15--11~--------13b15rp11-11-|
|------------------------------------------------------------------|
|------------------------------------------------------------------|
|------------------------------------------------------------------|
|------------------------------------------------------------------|[/tab]

[tab]|-------------------------------------16b18~-----------------------|
|-----11-13--11~---13b15rp11-------------------13b15-11~-----------|
|-12~------------------------12------------------------------------|
|------------------------------------------------------------------|
|------------------------------------------------------------------|
|------------------------------------------------------------------|[/tab]

[tab]|---------------------------------------------------14b16-13------------|
|-11~---11~---11~---11~---11--------13b15-13p11--------------13b15r-11~-|
|-----------------------------------------------------------------------|
|-----------------------------------------------------------------------|
|-----------------------------------------------------------------------|
|-----------------------------------------------------------------------|[/tab]

-Fade Out-