Hummingbird

B.b. King

Genero: Rock

Tablatura

BB King & John Mayer 
"Hummingbird"
from the album "80"

Intro

[tab]JM:
e|--------x--------------------------------------------------------------------------------------------------|
A|--------x----------8---10b-----------------8b--10------------------------------------10b-8-----------------|
D|--------x----------8---10b-10--------------8b--10-8----------------------------------10b-8-----------------|
G|----(8)-x-----8-10--10-------8-10-----8-10---------10-----------8-10-10---8----------------10-10--8-10-----|
B|--(10)--x--10----------------------------------------------10-10-----------10-------------------10---------|
E|-8------x-------------------------8--------------------8---------------------11b-8-------------------------|[/tab]

[tab]BB:
e|---------------------------------10b11---------------------------------------------------------------------|
A|--------------------------------x-----------------------------------------------13-13----------------------|
D|-------------------------------x-----------------------10b11r10p8----------------------------10b11r10p8h10-|
G|----8-------------------------x----------------------------------------------------------------------------|
B|--10-------------------------------------------------------------------------------------------------------|
E|-----------------------------------------------------------------------------------------------------------|[/tab]


[tab]JM:
e|------------------------8----------------------------------------------------------------------------------|
A|----------------8-------8------------------------------------------------------8---------------------------|
D|-------10-8--10b-10-8---8----------------------------------------------8-10-11--8--------------------------|
G|---------------------10-10-------8-10--8-----------------------------10-----------10-8---------------------|
B|-----------------------------------------------------------------------------------------------------------|
E|-8--------------------------------------11-8---------------------------------------------------------------|[/tab]

[tab]BB:
e|---------------------------8-------------------------------------------------------------------------------|
A|---------------------------11b-p8-----------------------------------------------------15b16-15-15-13-------|
D|--8-10-10b-----------------------------------------------8------------------------------------------15b16--|
G|--------------------------------------------------8-10-8---10p8h-------------------------------------------|
B|------------------------------------------------10--------------10p8---------------------------------------|
E|-----------------------------------------------------------------------------------------------------------|[/tab]


[tab]JM:
e|-----8------------------------------------------------------------------------------------------|
A|11b12-11----------------------------------------------------------------------------------------|
D|--------10b11r10p8------------------------------------------------------------------------------|
G|------------------h10-------------------------8-10-8-----------------------------8-10-8---------|
B|----------------------------------------10-10------------------------------10-10----------------|
E|-----------------------------------------------------11---------------------------------11-11-8-|[/tab]

[tab]BB:
e|------------------------------------------------------------------------------------------------|
A|----------------------15b16-(16*)-15b16---------------------------------------------------------|
D|---------------------x------------x--------------------8-10b11r10-------------------------------|
G|--------------------x------------x-------------------------------10-8---------------------------|
B|---------------------------------------------------------------------10-------------------------|
E|------------------------------------------------------------------------------------------------|
*pick the bent A string at D#[/tab]

[tab]JM:
e|----------------------------------------------------------|
A|----------------------------------------------------------|
D|--------------------------------------------------8-------|
G|---------------------------8-10--------------8-10---10----|
B|------------------------10--------------------------------|
E|--------------------------------11------------------------|[/tab]

[tab]BB:
e|-----------------------------------8---------------------|
A|-b16*-15p13----13-15b16------------11b12p8---------------|
D|-----------h15-------------------------------------------|
G|---------------------------------------------------------|
B|---------------------------------------------------------|
E|---------------------------------------------------------|
*pick the bent A string at D#[/tab]





************************************

| / slide up
| \ slide down
| h hammer-on
| p pull-off
| ~ vibrato
| + harmonic
| x Mute note
| b Bend
| r Return to note

************************************