Happy Blues

B.b. King

Genero: Pop

Tablatura

-------------------------------------------------------------------------------
Happy Blues Intro - BB King
-------------------------------------------------------------------------------
Tabbed by:Rich
Email:

Tuning:eadgbe

[tab]e|-----------------------------------------------------------------------------|
B|---------------------------4/5---------7-----5-------------------------------|
G|---------------------------5/6-------------------5bd------------4------------|
D|----------4-------7-------------7-------------------------7--------4----7----|
A|----/7-----------------------------------------------------------------------|
E|-----------------------------------------------------------------------------|[/tab]

[tab]e|---------------------5-------------5------8/10/8p5---------------------------|
B|----------------5------------8--------------------------------12------10-----|
G|---------5v---------------------------------------------/11-------11---------|
D|---7-------------------------------------------------------------------------|
A|-----------------------------------------------------------------------------|
E|-----------------------------------------------------------------------------|[/tab]

[tab]e|-----------------------------------------------------------------------------|
B|---12p10----------13h14h15-14-15-14-15-14-15bu17------------12--------10-----|
G|-----------11-----------------------------------------/11--------11----------|
D|-----------------------------------------------------------------------------|
A|-----------------------------------------------------------------------------|
E|-----------------------------------------------------------------------------|[/tab]

[tab]e|-----------------------------------12--------------/17-----------------------|
B|-12----10----------------10--------------------------------------------------|
G|-------------11--------------------------------------------------------------|
D|-----------------------------------------------------------------------------|
A|-----------------------------------------------------------------------------|
E|-----------------------------------------------------------------------------|[/tab]