Guess Who

B.b. King

Genero: Pop

Tablatura

-------------------------------------------------------------------------------
Guess Who - B.B. King
-------------------------------------------------------------------------------
Tabbed by: Kurisutophaa

This is my first tab so it might not be 100% but this is what sounded right to me.
Links are for the rendition of the song I tabbed. I added 3 in-case one of them
becomes broken. Same footage for all 3. Leave comments. Critics. All appreciated.
Thanks.
http://www.youtube.com/watch?v=yv-ECx8nSyI
http://www.youtube.com/watch?v=DCWcgP4UBCs
http://www.youtube.com/watch?v=dRt0P_mbqpE

Tuning:E A D G B E

[tab]e|---------------------------------------------------------------------------|
B|---11b(full)-11b(full)----11-11b(full)-11-9~~---11b(full)-11-11~-----------|
G|---------------------------------------------------------------------------|
D|---------------------------------------------------------------------------|
A|---------------------------------------------------------------------------|
E|---------------------------------------------------------------------------|[/tab]

[tab]e|------------------------------------9-9~~----9----9----9-11\---------------|
B|--9-11-9-11-9h11p9\8-6-8-6h8p6\4~---------11---11---11---------------------|
G|---------------------------------------------------------------------------|
D|---------------------------------------------------------------------------|
A|---------------------------------------------------------------------------|
E|---------------------------------------------------------------------------|[/tab]

[tab]e|--16-----------------------------------------------------------------------|
B|------11b(full)-9----9~~--------9-11b(full)-11b(full)----------------------|
G|-------------------10---------10-------------------------------------------|
D|---------------------------------------------------------------------------|
A|---------------------------------------------------------------------------|
E|---------------------------------------------------------------------------|[/tab]

[tab]e|--11b(full)-11-9~------11b(full)--11-9-------------------------------------|
B|------------------9\-------------------11b(full)-11-9-11-------------------|
G|---------------------------------------------------------10----------------|
D|---------------------------------------------------------------------------|
A|---------------------------------------------------------------------------|
E|---------------------------------------------------------------------------|[/tab]

[tab]e|--11b(full)-11~~--------------------9-11-9\8-8~--16------------------------|
B|------------------9-11b(full)-pb11-----------------------------------------|
G|---------------------------------------------------------------------------|
D|---------------------------------------------------------------------------|
A|---------------------------------------------------------------------------|
E|---------------------------------------------------------------------------|[/tab]

[tab]e|-----------------------------------9-9b(full)------------------------------|
B|--11b(full)-11-9-9~~-----11b(full)------------9~~--------------------------|
G|--------------------(10)---------------------------------------------------|
D|---------------------------------------------------------------------------|
A|---------------------------------------------------------------------------|
E|---------------------------------------------------------------------------|[/tab]

[tab]e|---------------------------------------------------------------------------|
B|--11b(full)-9----9-11-11b(full)-9-9~--11-12-13-----------------------------|
G|--------------10------------------------------------****************-------|
D|--------------------------------------------------------SINGING------------|
A|--------------------------------------------------------SINGING------------|
E|----------------------------------------------------****************-------|[/tab]

[tab]e|---------------------------------------------------------------------------|
B|--11b(full)-9~--b11(full)-11-9-11-11b(full)-9-9~--11b(full)-11-------------|
G|---------------------------------------------------------------------------|
D|---------------------------------------------------------------------------|
A|---------------------------------------------------------------------------|
E|---------------------------------------------------------------------------|[/tab]

[tab]e|------------------------------------9-9~~----9----9----9-11\---------------|
B|--9-11-9-11-9h11p9\8-6-8-6h8p6\4~---------11---11---11---------------------|
G|---------------------------------------------------------------------------|
D|---------------------------------------------------------------------------|
A|---------------------------------------------------------------------------|
E|---------------------------------------------------------------------------|[/tab]

[tab]e|--16------------9b(1/2)(full)----------------------------------------------|
B|------11b(full)---------------9~~-----9-11-11b(full)-----------------------|
G|-----------------------------------10----------------****************------|
D|---------------------------------------------------------SINGING-----------|
A|---------------------------------------------------------SINGING-----------|
E|-----------------------------------------------------****************------|[/tab]
[tab] Outro is hard to hear so it might be wrong but it think it's just a few notes.
e|---------------------------------------------------------------------------|
B|--9-9-9-9-11-11b(full)-----------------------------------------------------|
G|---------------------------------------------------------------------------|
D|---------------------------------------------------------------------------|
A|---------------------------------------------------------------------------|
E|---------------------------------------------------------------------------|[/tab]



************************************

| / slide up
| \ slide down
| h hammer-on
| p pull-off
| ~ vibrato
| + harmonic
| x Mute note
| b Bend
| pb Pre-bend
| br Bend release
| pbr Pre-bend release
| brb Bend release bend

************************************