Blues Boys Tune

B.b. King

Genero: Pop

Tablatura

[tab]     Q    Q    Q    Q       W                          
e|------------4----7----|--4~----------------|-------|
B|--4----7--------------|--------------------|-------|
G|----------------------|--------------------|-------|
D|----------------------|--------------------|-------|
A|----------------------|--------------------|-------|
E|----------------------|--------------------|-------|[/tab]

[tab] E S S S E S E E Q E S E Q E S E E
e|-------4-7-4-------7b--Lbr----|----------7br-------7-------|
B|--4--7------------------------|-------9---------9----9--7--|
G|------------------------------|----------------------------|
D|------------------------------|----------------------------|
A|------------------------------|----------------------------|
E|------------------------------|----------------------------|[/tab]

[tab] H Q Q E E Q H
e|--4~--------7b---------|-----------------------|-----------|
B|-----------------------|--\4-------------------|-----------|
G|-----------------------|-----------------------|-----------|
D|-----------------------|-----------------------|-----------|
A|-----------------------|-----------------------|-----------|
E|-----------------------|-----------------------|-----------|[/tab]

[tab] E E E E Q E E H E Q E
e|-----------7-------9br--7S--|--9~--------7--9brb-------|
B|-----7--9-------------------|--------------------------|
G|--8-------------------------|--------------------------|
D|----------------------------|--------------------------|
A|----------------------------|--------------------------|
E|----------------------------|--------------------------|[/tab]

[tab] E S S S H E S H Q E E
e|-----7---------------7----|----------------------|
B|--9----9-7-9~-------------|-------------------7--|
G|--------------------------|----------------8-----|
D|--------------------------|----------------------|
A|--------------------------|----------------------|
E|--------------------------|----------------------|[/tab]

[tab] S S S E E S E E Q Q H E E
e|----7S-9S-7-------9b--9b-------|--/16-------------9S--7--|
B|--9----------------------------|-------------------------|
G|-------------------------------|-------------------------|
D|-------------------------------|-------------------------|
A|-------------------------------|-------------------------|
E|-------------------------------|-------------------------|[/tab]

[tab] E E E S S E Q E E E H Q E E H Q
e|-----------------------------|------------------------|--4--6-----------------|
B|--12S--9--9S--7--------------|--4--4--5b~--------L----|--------4b--------L----|
G|-----------------------------|------------------------|-----------------------|
D|-----------------------------|------------------------|-----------------------|
A|-----------------------------|------------------------|-----------------------|
E|-----------------------------|------------------------|-----------------------|[/tab]

[tab] H E T T S E E S Q Q S S S Q
e|--------------------4s--7--|--11-9----7br----------------|
B|--L-----------7------------|-------------------9-7-9~----|
G|----------------8----------|-----------------------------|
D|---------------------------|-----------------------------|
A|---------------------------|-----------------------------|
E|---------------------------|-----------------------------|[/tab]

[tab] H Q E E H E E Q
e|-----------7br----7-----|-----------------------|
B|--L------------------9--|--9~-------------------|
G|------------------------|------------8----------|
D|------------------------|-----------------------|
A|------------------------|-----------------------|
E|------------------------|-----------------------|[/tab]

[tab] E E T S T E E E Q Q E Q E E E
e|-----7--9s-11------------------|-------7--9b----11--9--9br--|
B|--9-------------------\4-------|--9-------------------------|
G|-------------------------------|----------------------------|
D|-------------------------------|----------------------------|
A|-------------------------------|----------------------------|
E|-------------------------------|----------------------------|[/tab]

[tab] E S S E E E E S S S S S S S S S S S S S S S S S S E
e|--9--7-6----7--7--7--6br-6-----|--7-6-------7-6-------7-6---------|
B|---------9-----------------8-9-|------8-9-------8-9-------8-9~-L--|
G|-------------------------------|----------------------------------|
D|-------------------------------|----------------------------------|
A|-------------------------------|----------------------------------|
E|-------------------------------|----------------------------------|[/tab]

[tab] Q S E S Q Q E E E T T S H Q E H E
e|-------------------------|--9--7--------------------|--9br----7--9~-----------|
B|------------7-9~---------|-----------7-9------------|-------------------------|
G|-------------------------|--------------------------|-------------------------|
D|-------------------------|--------------------------|-------------------------|
A|-------------------------|--------------------------|-------------------------|
E|-------------------------|--------------------------|-------------------------|[/tab]

[tab] E E Q E E E E E S S S S E E Q E
e|--7-----9br----------7-----|----|---------4-7----7b--7br-------|
B|---------------9--9--------|----|-----4-7----------------------|
G|---------------------------|----|------------------------------|
D|---------------------------|----|------------------------------|
A|---------------------------|----|------------------------------|
E|---------------------------|----|------------------------------|[/tab]

[tab] E E H Q Q S S S S E E E E
e|--4----------------------|---------------7-----9b--9b--|
B|-----4S--7b~-------------|-----------7-9---------------|
G|-------------------------|---------8-------------------|
D|-------------------------|-----------------------------|
A|-------------------------|-----------------------------|
E|-------------------------|-----------------------------|[/tab]

[tab] E Q E Q Q S E S S Q Q E S Q E E H
e|--L-------16\-------9----|--7-------------------7b----|-----------------------|
B|-------------------------|-------9-7-9~---------------|-------4--4--6b--------|
G|-------------------------|----------------------------|-----------------------|
D|-------------------------|----------------------------|-----------------------|
A|-------------------------|----------------------------|-----------------------|
E|-------------------------|----------------------------|-----------------------|[/tab]

[tab] E E E H E E E E E S S S E E S
e|-----4--6---------------|-----------6--7S-9S-7-9--7--9b-|
B|-----------4~--------L--|-----8--9----------------------|
G|------------------------|--8----------------------------|
D|------------------------|-------------------------------|
A|------------------------|-------------------------------|
E|------------------------|-------------------------------|[/tab]

[tab] S E Q Q S Q H H E Q E Q Q
e|--L-L--L-----------------|-----------7br--------|-----6------------------|
B|-----------------9~-L----|--L-------------------|----------9--9~---------|
G|-------------------------|----------------------|------------------------|
D|-------------------------|----------------------|------------------------|
A|-------------------------|----------------------|------------------------|
E|-------------------------|----------------------|------------------------|[/tab]

[tab] Q Q H E E E E E E E E E Q E H
e|-----------------------|--------------6--6-----6br--|--L--6------------------|
B|-----------------------|--8--8--9-------------------|----------9~--9~--------|
G|--8\~------------------|----------------------------|------------------------|
D|-----------------------|----------------------------|------------------------|
A|-----------------------|----------------------------|------------------------|
E|-----------------------|----------------------------|------------------------|[/tab]

[tab] H E E Q E E E E E E E E E Q E H
e|----------------------|--------------6--6-----6br--|--L--6-----------------|
B|--L--------8--9-------|--8--8--9--9----------------|----------9~--L--------|
G|----------------------|----------------------------|-----------------------|
D|----------------------|----------------------------|-----------------------|
A|----------------------|----------------------------|-----------------------|
E|----------------------|----------------------------|-----------------------|[/tab]

[tab] H E E Q H Q Q E S S Q Q S S S S
e|----------------------|-----------/9---------|--/9--7---------------9-7---9-|
B|--L--------8--9-------|----------------------|--------7S-9\-------------9---|
G|----------------------|----------------------|------------------------------|
D|----------------------|----------------------|------------------------------|
A|----------------------|----------------------|------------------------------|
E|----------------------|----------------------|------------------------------|[/tab]

[tab] S S S S S S S S S Q S E Q Q E Q E
e|--7---9-7---9-7----------------|------------9b--9b-------|
B|----9-----9-----9-7-9~----L-L--|-------9-----------------|
G|-------------------------------|-------------------------|
D|-------------------------------|-------------------------|
A|-------------------------------|-------------------------|
E|-------------------------------|-------------------------|[/tab]

[tab] E Q E Q Q S S S Q S S S S Q S
e|-----16\-------7~----4~----|--7-4---4-------------------|
B|---------------------------|------7---------------------|
G|---------------------------|-------------6-4------------|
D|---------------------------|-----------------6-4-6------|
A|---------------------------|----------------------------|
E|---------------------------|----------------------------|[/tab]

[tab] H E E Q Q E E H E E E E E E E E
e|-----------------------|----------6------------|-----------------11--9-----|
B|-----------------7b----|--L----9---------------|--6--9-----6--9------------|
G|-----------8--8--------|-------------8~--------|---------------------------|
D|-----------------------|-----------------------|---------------------------|
A|-----------------------|-----------------------|---------------------------|
E|-----------------------|-----------------------|---------------------------|[/tab]

[tab] S E H E S E Q S E S S E E E S
e|-------7b----------------|---------5b--4S-2S-4-----5b--4S-|
B|--------------------9----|--------------------------------|
G|-------------------------|--------------------------------|
D|-------------------------|--------------------------------|
A|-------------------------|--------------------------------|
E|-------------------------|--------------------------------|[/tab]

[tab] S E E E S S Q E S Q E Q Q E
e|--2S-4-----5b--4S-2S-4~----L--L-|--\4--------------------|
B|--------------------------------|--------4--4------------|
G|--------------------------------|------------------------|
D|--------------------------------|------------------------|
A|--------------------------------|------------------------|
E|--------------------------------|------------------------|[/tab]

[tab] E E E Q Q E E Q E Q Q
e|--9b--9s--7--11------------|-----9----7--9----11S----|
B|---------------------------|-------------------------|
G|---------------------------|-------------------------|
D|---------------------------|-------------------------|
A|---------------------------|-------------------------|
E|---------------------------|-------------------------|[/tab]

[tab] Q S S E E E Q H Q E E E S S E Q Q E
e|--7-----------------------|----------------9--7--|--L--------------7br-------|
B|-------9-7-------7--9~----|--L--------L----------|-----9-7----------------9--|
G|-----------8--------------|----------------------|---------8-----------------|
D|--------------------------|----------------------|---------------------------|
A|--------------------------|----------------------|---------------------------|
E|--------------------------|----------------------|---------------------------|[/tab]

[tab] E S S S S Q E Q E Q E H
e|-----7----------------9br----|--7--9~----L-----------|
B|--7----9-7-9-L~--------------|-----------------------|
G|-----------------------------|-----------------------|
D|-----------------------------|-----------------------|
A|-----------------------------|-----------------------|
E|-----------------------------|-----------------------|[/tab]

[tab] E H E E E E S S E H E Q E E E E Q
e|-----7brb-----------------|-----7---------------------|-------------7--9-------|
B|--9-----------------9--7--|--L----9-7--7pbr-----------|-------7--9-------------|
G|--------------------------|---------------------------|------------------------|
D|--------------------------|---------------------------|------------------------|
A|--------------------------|---------------------------|------------------------|
E|--------------------------|---------------------------|------------------------|[/tab]

[tab] E H E E E E S E Q E S E E
e|--9b--9b--------------16\--|---L----9--9s----7------------|
B|---------------------------|--------------------9S-7S--9--|
G|---------------------------|------------------------------|
D|---------------------------|------------------------------|
A|---------------------------|------------------------------|
E|---------------------------|------------------------------|[/tab]

[tab] Q Q H E E H E E Q E E H
e|-------/7-------------|----------------------6--|----------------------|
B|--L-------------------|--------7S~--------9-----|-------7--------------|
G|----------------------|--8--8-------------------|--8-------------------|
D|----------------------|-------------------------|----------------------|
A|----------------------|-------------------------|----------------------|
E|----------------------|-------------------------|----------------------|[/tab]

[tab] Q E E H E Q Q Q E W
e|----------7--9br--------|--7--6-------------------|--------------------|
B|-------9----------------|----------7S----9----L~--|--L~----------------|
G|------------------------|-------------------------|--------------------|
D|------------------------|-------------------------|--------------------|
A|------------------------|-------------------------|--------------------|
E|------------------------|-------------------------|--------------------|[/tab]

[tab] W W
W E Q E H E E H E E
e|--------------------|-----------------------|-----------------------|
B|--L~----------------|--9s--7----------------|--9--7-----------9--7--|
G|--------------------|-----------------------|-----------------------|
D|--------------------|-----------------------|-----------------------|
A|--------------------|-----------------------|-----------------------|
E|--------------------|-----------------------|-----------------------|[/tab]

[tab] S S E E E Q E E E Q E S S S S E E
e|--11-9-7--7------------7-----|-------------4S-7S-9S-11-9--7--|
B|-------------9~--9~----------|----------7--------------------|
G|-----------------------------|-------------------------------|
D|-----------------------------|-------------------------------|
A|-----------------------------|-------------------------------|
E|-----------------------------|-------------------------------|[/tab]

[tab] H E S S S E S S S S E S S S S E S S S S S
e|--9~--------9--------9----|--------9----------9----------9-|
B|---------------9-7-9------|--9-7-9------9-7-9------9-7-9---|
G|--------------------------|--------------------------------|
D|--------------------------|--------------------------------|
A|--------------------------|--------------------------------|
E|--------------------------|--------------------------------|[/tab]

[tab] S S S S E E E E Q Q E E E Q S S
e|--L----------------------------|-------------7--9br------7-|
B|------9-7-9--7--9--7--7pbr~----|--L----7--9------------9---|
G|-------------------------------|---------------------------|
D|-------------------------------|---------------------------|
A|-------------------------------|---------------------------|
E|-------------------------------|---------------------------|[/tab]

[tab] S Q Q S S Q S Q H Q
e|--L------7br------------------|-------/16~---------L----|
B|----------------9S-7S-9~------|-------------------------|
G|----------------------------8-|-------------------------|
D|------------------------------|-------------------------|
A|------------------------------|-------------------------|
E|------------------------------|-------------------------|[/tab]

[tab] H H Q Q Q Q
e|---LS--------23--------|--16\-------------------||
B|-----------------------|--------------9---------||
G|-----------------------|------------------------||
D|-----------------------|------------------------||
A|-----------------------|------------------------||
E|-----------------------|------------------------||[/tab]



************************************

| W Whole
| H Half
| Q Quarter
| E 8th
| S 16th

| ~ Vibrato
| b Bend
| \ Slide down
| / Slide up
| s Slide
| pbr Pre-bend release

************************************