Baby I Love You

B.b. King

Album: Deuces Wild
Genero: Pop

Tablatura (Ver letra)

America

Artist: BB King
Album: Deuces Wild
Track: Baby I love you

Play this solo with a very bluesy kind of feel. The following chords are played for backing:

G7 C7 G7

[tab]E --8-10-------------------------------8--10-----6-------|
B ---------10-11--10p8----8----8-10-11--------8----8p6---|
G ---------------------------9---------------------------|
D -------------------------------------------------------|
A -------------------------------------------------------|
D -------------------------------------------------------|[/tab]

[tab]E --10-13----10p8---------------------------15/------6---|
B -----------------11-----8-----10-11-10p8--------8------|
G ----------------------x-----9--------------------------|
D -------------------------------------------------------|
A -------------------------------------------------------|
D -------------------------------------------------------|[/tab]


Tabbed by Pete Earnshaw