Te Quiero A Tí

Kumbia Kings

Genero: Pop

Tablatura

q pex band, les mando uan correcion de una rola q yo
mande, lo q pasa s q c m paso un acorde q no lo apunte
y pense q les causaria problema, fue un error d dedo
ad+ les pongo el asus7 q utilize x q varios m lo pidieron
va dice asi

olash banda ahi les paso sta rola de los kumbia kings
muchos la pedian y nadie se animo asi que aki sta
se A dedico A KARINA TAHIMY jeje le laten un buen los
kumbia kings y por ella m empezaron a latir es una rola
que m queda perfecta se la dedico con mucho cariño,
"tu sabes porque" "dame otra oportunidad neta yo no
fui"
"yo t lo juro que yo no fui" "PEPE EL TORO ES INOCENTE"
ORALEHS BANDA SE CUIDAN cualquier duda hechenla a
ed_che19@hotmail.com

intro:
D----------------------------------------------------
G--11------------------------------------------------
B-----9-10-10-10-9-10-12-9-12-9-10-12---9-10-12---9--
e-------------------------------------9---------9----

te quiero a ti……… te quiero a ti…….

D----------------------------------------------------
G-----------11---------------------------------------
B--10-12-10----9-10-10-10-9-10-12-9------12-12---10--
e-----------------------------------10-9-------9-----

A Bm
Amor no me digas adiós no t vayas
D E A
No dejes que todo se termine así RIFF
Bm
Recuerda la vida que un día soñamos
D E A / Asus7
Recuerda que yo voy hacerte feliz

Coro:


F#m D
Te quiero, te quiero mi amor no t vayas
E A/ A sus7
No ves que yo t necesito aquí
F#m D
Te quiero, te quiero con toda mi alma
E A
Te quiero conmigo no t me puedes ir

F#m E D E A/Asus7 F#m
Te quiero a ti porque no comenzamos de nuevo
F#m E D E A/Asus7 F#m
Te quiero a ti por favor no m dejes solito
F#m E D E A/Asus7 F#m
Te quiero a ti aqui estoy para toda la vida
F#m E D E A D/A
Te quiero a ti te quiero ati

Puente: F#m E, D, E, A, D/A

Solo:

D----------------------------------------------------
G--11------------------------------------------------
B-----9-10-10-10-9-10-12-9-12-9-10-12---9-10-12---9--
e-------------------------------------9---------9----

D----------------------------------------------------
G-----------11---------------------------------------
B--10-12-10----9-10-10-10-9-10-12-9------12-12---10--
e-----------------------------------10-9-------9-----

A Bm
Amor no m digas que ya no m quieres
D E A
Porque este desprecio m duele tanto a mi rifft
Bm
Si mi gran error decides perdonarme
D E A/ Asus7
Yo se que podré hacerte muy feliz

Coro: x 2

F#m D
Te quiero, te quiero mi amor no t vayas
E A/ A sus7
No ves que yo t necesito aquí
F#m D
Te quiero, te quiero con toda mi alma
E A
Te quiero conmigo no t me puedes ir

F#m E D E A/Asus7 F#m
Te quiero a ti porque no comenzamos de nuevo
F#m E D E A/Asus7 F#m
Te quiero a ti por favor no m dejes solito
F#m E D E A/Asus7 F#m
Te quiero a ti aqui estoy para toda la vida
F#m E D E A D/A
Te quiero a ti te quiero ati


Final

Te quiero a ti……. Te quiero ati…..


D--------------------------------------------------------
G---------10--------------9--------------10--------------
B-10---10----8-10-10---10---8-10-10---10----8-10-10---10-
e----9---------------9--------------9---------------9----


D--------------------
G-9------------------
B---8-10-10---10-----
e-----------9--------



RIFFT chequen donde va

G------------------
B------------------
e-8-8-7-5-7-8/9-7-5


A sus7
E 0
A 0
D 2
G 0
B 3
E 0