Soy Yo

Banda El Limón

Genero: Pop

Tablatura

ESTA CANCION ESTA DEDICADA A Mª ELIZABETH V.S. EL AMOR DE MI VIDA
Y A LOS BELLOS MOMENTOS QUE VIVIMOS JUNTOS.....TE AMO LIZ


Intro: Eb Bb7


Eb
SOY YO
Gm G#
SE QUE ES MUY TARDE PARA HABLARTE
Bb7 Eb Cm
PERO ESTOY TAN SOLO Y EL ESCUCHARTE
G# Bb7 Eb
ME HACE TANTO BIEN, ME HACE TANTO BIEN


Eb
AYER
Gm G#
HACE APENAS UNAS CUANTAS HORAS
Bb7 Eb Cm
YO TENIA EL TEMOR DE TANTAS COSAS
G# Bb7 Eb Eb7
DE QUERER VIVIR SOLO PARA TI...


G#
SOY YO
Bb7 Eb
QUIERO SER TU AMANTE DESDE AHORA
Cm G#
Y EN TU VIDA ERRANTE SER TU SOMBRA
Bb7 Eb Eb7
AUNQUE EL DIA SE OPONGA A NUESTRO AMOR


G#
SOY YO
Bb7 Eb
Y ESTARE DESPIERTO HASTA QUE LLEGUES
Cm G#
DESDE HOY CARIÑO SI TU QUIERES
Bb7 Eb Eb7
TIENES UNA CITA CON MI AMOR



INTERMEDIO:
------------------------------------------------------------------------
-----11----16-16-16--15-15--13--------13---18-18-18--16-16-15-------16--
-12-----------------------------12-13-------------------------17-15-----
------------------------------------------------------------------------
------------------------------------------------------------------------
------------------------------------------------------------------------


------------8-----------------------------------------------------------
-8-9--11--8-------6--8--9--6--8-----------------------------------------
------------------------------------------------------------------------
------------------------------------------------------------------------
------------------------------------------------------------------------
------------------------------------------------------------------------
------------------------------------------------------------------------


G#
SOY YO
Bb7 Eb
QUIERO SER TU AMANTE DESDE AHORA
Cm G#
Y EN TU VIDA ERRANTE SER TU SOMBRA
Bb7 Eb Eb7
AUNQUE EL DIA SE OPONGA A NUESTRO AMOR


G#
SOY YO
Bb7 Eb
Y ESTARE DESPIERTO HASTA QUE LLEGUES
Cm G#
DESDE HOY CARIÑO SI TU QUIERES
Bb7 Eb Eb7
TIENES UNA CITA CON MI AMOR




NOTA: EL INTERMEDIO ESTA CORRECTO YA QUE ESTA DENTRO DE LA ESCALA,....
Y EL TONO DE LA CANCION TAMBIEN ESTA CORRECTO ES Eb (MI BEMOL.....)
ES POR EL TIPO DE TIMBRE DEL CANTANTE PERO ESTA TRANSCRIPCION ESTA CORRECTA.
ESTA EN EL MISMO TONO QUE EN EL DISCO