Libros Tontos

Banda 21

Genero:

Tablatura

Intro
A D E

PUNTEO
e||7---7---7----7-7---------------------10/11-8-6--4--6-4-6-4----------||
B||--8---8---8-8---8-----------------------------------6------44444----||
G||------------------10----10----10------------------------------------||
D||-----------------------11----11----11-11----------------------------||
A||--------------------------------------------------------------------||
E||--------------------------------------------------------------------||

e||-7---7----7---7-7-----------------------10/11-10-8--6--4-6-4-6--9---||
B||--8----8---8-8----8-------------------------------------------------||
G||--------------------10----10----10----------------------------------||
D||-----------------------11----11----11-11----------------------------||
A||--------------------------------------------------------------------||
E||--------------------------------------------------------------------||

D
Madrugada es
A
intento estudiar
D A
por que mañana presento
E
mi examen final
D A
no puedo concentrarme
D A
no se me queda nada
F#m E
solo tu imagen hermosa
D A E
mi pensamiento acapara


D
libros tontos
A
como quieren que sus letras
E
entren en mi mente
D A
si mi mente esta cansada
E
de tento quererte
F-F7 E
de quererte de quererte


D
Libros tontos
A E
como quieren que sus letras
D
entren en mi mente
A E
se muy bien que por su culpa
D
perdere el semestre
F-F7
pero la quiero
E-E7
la quiero
D A E
perdonenme


D
Es de dia y yo
A
no logre estudiar
D A
se me fué la noche entera
E
en ella pensar
D A
pero tengo la esperanza
D A
de mirarla hoy en clase
D A
de abrazarla y de besarla
D A E-E7
aunue el examen no pase

D
libros tontos
A
como quieren que sus letras
E
entren en mi mente
D A
si mi mente esta cansada
E
de tento quererte
F-F7 E E7
de quererte de quererte


D
Libros tontos
A E
como quieren que sus letras
D
entren en mi mente
A E
se muy bien que por su culpa
D
perdere el semestre
F-F7
pero la quiero
E-E7
la quiero
D A
Perdonenme


=LuChO=