Inspiración

Balerom

Genero:

Tablatura

Intro: C - F - G
Esto lo hacen 4 veces.

C
Yo siempre he sido fiel…
Dm7
A mis sentimientos, fiel a mi decisión
G C
Fiel a mi pensamiento, fiel a mi condición
Dm7
Fiel a mis emociones, fiel a mi corazón
G C
Fiel a cada momento, fiel a la inspiración.
F G C
… y es que todos comprenden a la inspiración,
F G C
Porque todos se abrazan con inspiración,
F G E F
Porque a todos les gusta, yoooooo me la imagino,
Dm C G E F
Y el mundo cambia de color, contemplando a la creación
G C
Encuentro a la inspiración
F G C
Y todos enloqueciendo con la inspiración
F G C
Perdiendo la cabeza con la inspiración
F G E F
Fundidos en la esencia, yooooo me la imagino
Dm C G E F
Y el mundo cambia de color, contemplando a la creación
G C
Encuentro a la inspiración
F G C
… volando por las nubes con la inspiración
F G C
Volando a otra galaxia con la inspiración
F G E F G
Al templo de mi alma, yooooo me la imagino

Aquí viene el solo que es algo así, mientras la 1 guitarra hace el círculo C - F - G:


e--8-----13 12---------------------------------------------------------------------------------|
B-------- ------13-----10-13-12-10-----------------------8------10-----8-----12----8--10-------
G--------- -------------------------12------10-9----9 10---10-9---9-10--10-9----10-------------
D------------------------------------------------10--------------------------------------------|
A----------------------------------------------------------------------------------------------|
E----------------------------------------------------------------------------------------------|

e----------------------------------------------------------------------------------------------|
B-12p13------12--10--------------------------------------8---8---8----8---8p10-10p8------------|
G----------------------12----9--10-9-----------------------9---9-- 10--------------------------|
D---------------------------------------10---9-10-9--------------------------------------------|
A------------------------------------------------------10--------------------------------------|
E----------------------------------------------------------------------------------------------|


E F G
Yooooo me la imagino….

C - F - G
Esto lo hacen de nuevo 4 veces como al principio.



Espero les haya cuadrado la pieza, esta demasiado buena y fácil para sacar.

Para los que no entendieron la parte del solo:
continua en la de abajo por eso no los cerré arriba ni el B ni el G,
y en la canción se hace una pequeña variación en el acorde C:
nada mas le agregamos a dicho acorde el dedo meñique en la primer cuerda, en el tercer traste.


Gracias cualquier duda a:
Jesusmorap14@yahoo.es