Y Llegaste Tú

Balak

Genero:

Tablatura

bueno aqui tengo un buen tab de esta banda que es nueva
jejejej bueno la rola es un cover de la banda el recodo pero
con unos arreglos de balak buenos y faciles esta facil
de tokar con tu banda bueno un saludo a los tr3s27 de angostura
chequen los videos en youtube jejeje bueno a nos vidrios
sale.-


INTRO
C
E-----------------------------
A-3-3-3-5-5-5-7-7-7--8--8--8--
D-----------------------------
G-5-5-5-7-7-7-9-9-9-10-10-10--
B-----------------------------

F
E--------------------------------------
A-10-10-10--8---8--8-7-7-7-5-5-5-3-3-3-
D--------------------------------------
G-12-12-12-10-10-10-9-9-9-7-7-7-5-5-5-
B---------------------------------------

Am
E-----------------------------
A-3-3-3-5-5-5-7-7-7--8--8--8-
D----------------------------
G-5-5-5-7-7-7-9-9-9-10-10-10--
B-----------------------------

G
E--------------------------------------
A-10-10-10--8---8--8-7-7-7-5-5-5-3-3-3-
D--------------------------------------
G-12-12-12-10-10-10-9-9-9-7-7-7-5-5-5-
B--------------------------------------

nota we lo que sigue es el verso
hey fede toka en quintas la rola y checate
las pausas he OJO LA x quiere decir la pausa
we como te daras cuentas como hay muchas
x quiere decir que es larga la pausa entre mas
x hayga quiere decir mas pausa entre menos
x menos pausa ok escucha la rola y enteras lo que digo

VERSO.-

antes de conocerte...........................................
C PAUSA
E-------------------------------------------
A-3-3-3-3-3-3-3-3-X-X-X-X-X-X-X-X-X-X-X-X-X-
D-5-5-5-5-5-5-5-5-X-X-X-X-X-X-X-X-X-X-X-X-X-
G-5-5-5-5-5-5-5-5-X-X-X-X-X-X-X-X-X-X-X-X-X-
B-------------------------------------------

ilusion..........................................
G
E-3-3-3-3-3-3-3-3-X-X-X-X-X-X-X-X-X-X-X-X-X-X
A-5-5-5-5-5-5-5-5-X-X-X-X-X-X-X-X-X-X-X-X-X-X-
D-5-5-5-5-5-5-5-5-X-X-X-X-X-X-X-X-X-X-X-X-X-X-
G---------------------------------------------
B---------------------------------------------

un gran vacio....................llenaba a mi corazon
G
E-3-3-3-3-x-x-x-x-x-x-x-x-x-1-1-1-1-3-3-3-3----
A-5-5-5-5-x-x-x-x-x-x-x-x-x-3-3-3-3-5-5-5-5---
D-5-5-5-5-x-x-x-x-x-x-x-x-x-3-3-3-3-5-5-5-5---
G---------------------------------------------
B----------------------------------------------
C
E---------------------------------
A-3-3-3-3-3-5-5-3-3-3-3-3-3-3-3-3-
D---------------------5-5-5-5-5-5-
G-5-5-5-5-5-7-7-5-5-5-5-5-5-5-5-5-
B---------------------------------

NOTA.- lo que sigue son dos arreglos de guitarra
ok quiere decir esto como los balak es una sola guitarra
se escuchan dos por que las graban por separado bueno
entoces puedes hacer el riff de la guitarrra o
el acompañamiento
ok sale pues.-

pero cuando llegaste..............me motivaste...........
C B/C Am G F
E---------------------------------3-3-3-3-3-1-1-1-1-1-
A-3-3-3-3 3 2 2 2 2 2 - 0-0-0-0-0-5-5-5-5-5-3-3-3-3-3-
D-5-5-5-5-5-5-5-5-5-5---2-2-2-0-0-------------------
G----------------------------------------------------

E-----------------------
A----------------------ojo este
D-5-5-----------------pequeño riff
G-------5-5-7-7-5-5-lo hace todo en
B----------------------el verso ok escuchalo y termina haci

E------------------------------
A------------------------------
D-------------------------------
G-----------------5-5-5--------
B-5-5-5--6-6-6---------------

lo que sigue es la continuacion del acompañamiento Ç
que esta arriba
C G F G C
E---------3-3-3-3-3-3-1-1-1-1-3-3-3-------------
A-3-3-3-3-5-5-5-5-5-5-3-3-3-3-5-5-5-3-3-3-3-3-
D-5-5-5-5---------------------------5-5-5-5-5-
G----------------------------------------------

aqui ya sigue el coro sale pues OJO los acordes o tonos
son largos lo puse cortos para no repetir tanto numero pero
en el coro los tonos son largos we sale.

y llegaste tu......................y llegaste tu
C G Dm
E-------------3-3-3-3-3-------------
A-3-3-3-3-3-3-5-5-5-5-5-5-5-5-5-5-
D-5-5-5-5-5-5-5-5-5-5-5-7-7-7-7-7-
G-5-5-5-5-5-5-----------7-7-7-7-7-
G C
E-3-3-3-3-3--------------
A-5-5-5-5-5-3-3-3-3-3-
D-5-5-5-5-5-5-5-5-5-5-
G-----------5-5-5-5-5-

Y llegaste tu trallendo contigo..........................
C
E------------------------------------------
A-3-3-3-3-3-3-3-3-3-3-3-3-3-3-3-3-3-3-3-3-3
D-5-5-5-5-5-5-5-5-5-5-5-5-5-5-5-5-5-5-5-5-5
G-5-5-5-5-5-5-5-5-5-5-5-5-5-5-5-5-5-5-5-5-5

ilusion desde que tu llegaste me enamoraste
F C G
E-1-1-1-1-1-1-1-1-1-------------------3-3-3-3-
A-3-3-3-3-3-3-3-3-3-3-3-3-3-3-3-3-3-3-5-5-5-5-
D-3-3-3-3-3-3-3-3-3-5-5-5-5-5-5-5-5-5-5-5-5-5-
G-------------------5-5-5-5-5-5-5-5-5-----------

con puro amor y hoy quiero confesarte que solo tuyo
G C G F C G
E-3-3-3-3-------3-3-1-1-1-1-1-1-1-1-----------3-3-3-3
A-5-5-5-5-3-3-5-5-3-3-3-3-3-3-3-3-3-3-3-3-3-3-5-5-5-5
D-5-5-5-5-5-5-5-5-3-3-3-3-3-3-3-3-5-5-5-5-5-5-5-5-5-5
G-----------5-5---------------------5-5-5-5-5----------

que solo tuyo es mi corazon...........................
G C
E-3-3-3-3-3-3-3-3-3-3-3-------------
A-5-5-5-5-5-5-5-5-5-5-5-3-3-3-3-3
D-5-5-5-5-5-5-5-5-5-5-5-5-5-5-5-5
G-----------------------5-5-5-5-5

AQUI WE ENTRA UN PUENTE DONDE SE ESCUCHAN
DOS GUITARRAS WE PONLE ANTECION HACI QUE TE
DEJO LAS DOS WE SALE PUES

y llegaste y llegaste y llegaste y llegaste tu
C F Am G
E-------------------1-----------5----------3--
A------3------------3-----------7----------5--
D------5------------3-----------7----------5--
G------5----------------------------------------

OJO ESTO QUE SIGUE ES LA OTRA GUITARRA
Y LA ACOMPAÑA LO DE ARRIBA CASI NO
SE ESCUCHA ESTE ARREGLO JEJEJEJ.
(ojo wey el arreglo lo hace todo el puente we
cada tono es una arreglo escucha y sabras lo
que digo)
C-F-Am-G (x2)
E--------------------------------
A--------------------------------
D-5-----------------5------------
G-5-7-5-7-5---------5-7-5-7-5----
B--------------8---------------8-

y llegaste tu y llegaste tu y llegaste tu y llegaste tu ..
C F Am G
E-------------------1-1-1-1-1-1-5-5-5-5-5-5-3-3-3-3-
A-------3-3-3-3-3-3-3-3-3-3-3-3-7-7-7-7-7-7-5-5-5-5-
D-------5-5-5-5-5-5-3-3-3-3-3-3-7-7-7-7-7-7-5-5-5-5-
G-------5-5-5-5-5-5---------------------------------

OJO LO QUE SIGUE ES EL CORO QUE IGUAL QUE EL
DE ARRIBA WE JEJEJE NO LO PONGO PARA QUE
NO SE TE HAGA MUCHO.

BUENO DESPUES DEL CORO SIGUE EL FINAL QUE
ESTA CURADO WE JEJEJEJEJEJE

que solo tuyo es mi corazon.......................
G C
E-3-3-3-3-3-3-3-3-3-3-3-------------
A-5-5-5-5-5-5-5-5-5-5-5-3-3-3-3-3
D-5-5-5-5-5-5-5-5-5-5-5-5-5-5-5-5
G-----------------------5-5-5-5-5
C G C G C
E-------3-3-------3-3--------------
A-3-3-3-5-5-3-3-3-5-5-3-----------
D-5-5-5-5-5-5-5-5-5-5-5-----------
G-5-5-5-----5-5-5-----5-----------

BUENO ESO ES TODO OJALA LES SIRVA
Y LA PUEDAN TOKAR LA ROLA ESTA ESPECIAL
PARA UNA FIESTA LA ROLA JEJEJEJ BUENO CHEQUEN
EL VIDEO DE ESTA JEJEJEE Y CHEQUEN TAMBIEN LOS
VIDEOS DE MI BANDA TR3S27 EN YOUTUBE JEJEJE
A VER B CONVENSO A E BANDA DE SACAR ESTE COVER
JEJEJE BUENO ADIOS UN SALUDO CUES.



ATTTE.- MARTIN ARMENTA BELTRAN EL DE LOS LENTES



NOTA.- MARTIN UTILIZA GUITARRAS FENDERS