Mientes

Balak

Genero: Pop

Tablatura

Hola de nuevo, soy Israel y ahora vengo a aportar
Esta canción que si me costo un poco de trabajo
Sacarla pero al fin la pude sacar bien. Bueno esta
Canción como siempre va dedicada para Sonia que como
ya dije es muy especial para mi.
Bueno ahí les va
aquí están las notas:

F#m6 Dsus2 Bm D G A
e-----X-----O-----2-----2-----3----0
B-----2-----3-----3-----3-----3----2
G-----2-----2-----4-----2-----0----2
D-----2-----0-----4-----0-----0----2
A-----X-----X-----2-----0-----2----O
E-----2-----X-----X-----0-----3----0

Intro

D Dsus2 D F#m6
E -----------------------------------------------------
A -----------------------------------------------------
D -----------------------------------------------------
G -----------------------------------------------------
B 3-3-3-3-3-3-3-3-5-5-5-5-7-7-7-7-3-3-3-3-3-3-3-3-3----
E -----------------------------------------------------

A F#m6 Bm
E -----------------------------------------------------
A -----------------------------------------------------
D -----------------------------------------------------
G -----------------------------------------------------
B -5-5-5-5-7-7-7-7-3-3-3-3-3-3-3-3-3-------------------
E -----------------------------------------------------

Bm7 Bm G A
E -----------------------------------------------------
A -----------------------------------------------------
D -----------------------------------------------------
G -----------------------------------------------------
B -5-5-5-5-7-7-7-7-5-5-5-5-5-5-5-5-8-8-8-8-7-7-7-7-----
E -----------------------------------------------------


D F#m6 Bm
Te di mi corazón, y en medio una razón
G A
Y todo por la mala suerte de encontrarte
D F#m6 Bm
Me hiciste sufrir, como nadie mas
G D
Y todo por la mala leche de tu sangre

F#m6 D G D Bm
Y ahora me dices que regrese, que sin mi no tienes nada
G F#m6
Pero lo nuestro se acabo.

<CORO>
D F#m6 Bm
Mientes, tú siempre mientes, a cada momento
G F#m6 D
Por tu maldad me perdiste por siempre

Se repite la Intro

D F#m6 Bm
No tienes moral, y eres mas fácil que respirar
G D
Y siempre fuiste inútil hasta para amarme

F#m6 D G D Bm
Y ahora me dices que regrese, que sin mi no tienes nada
G F#m6
Pero lo nuestro se acabo.

<CORO>
D F#m6 Bm
Mientes, tú siempre mientes, a cada momento
G F#m6 D
Por tu maldad me perdiste por siempre
F#m6 Bm
Vete muy lejos, no vuelvas más
G F#m6 Bm
Quédate y llora con tu soledad

<SOLO>
Bm F#m6 G F#m6
E -------------------------------------------------------------
A -------------------------------------------------------------
D -------------------------------------------------------------
G -6-7----6--6----6----------------7-8----7---7----6-7---------
B 7----7----7---5----3-5---------8------8---8----7----7---5----
e -------------------------------------------------------------


Bm F#m6 G F#m6
E ------------------------------------------------------------
A ------------------------------------------------------------
D ------------------------------------------------------------
G
B
e ------------------------------------------------------------


<CORO>
D A Bm
Mientes, tú siempre mientes, a cada momento
G F#m6 D
Por tu maldad me perdiste por siempre
F#m6 Bm
Vete muy lejos, no vuelvas más
G F#m6 D
Quédate y llora con tu soledad

Intro

D Dsus2 D F#m6
E -----------------------------------------------------
A -----------------------------------------------------
D -----------------------------------------------------
G -----------------------------------------------------
B 3-3-3-3-3-3-3-3-5-5-5-5-7-7-7-7-3-3-3-3-3-3-3-3-3----
E -----------------------------------------------------

Haaa haaa haaaa
A F#m6 Bm
E -----------------------------------------------------
A -----------------------------------------------------
D -----------------------------------------------------
G -----------------------------------------------------
B -5-5-5-5-7-7-7-7-3-3-3-3-3-3-3-3-3-------------------
E -----------------------------------------------------

Bm7 Bm G A
E -----------------------------------------------------
A -----------------------------------------------------
D -----------------------------------------------------
G -----------------------------------------------------
B -5-5-5-5-7-7-7-7-5-5-5-5-5-5-5-5-8-8-8-8-7-7-7-7-----
E -----------------------------------------------------

Bm F#m6 G
Porque ahora estoy aquí yo lejos sin tiiii


NOTA: en lugar de usar A en los acordes igual pueden
usar F#m6 es casi lo mismo

Bueno esa fue la canción y espero que les sirva